Guitar Tabs for Bajo El Agua

(/) Slide Up  (\) Slide Down  (h) Hammer On  (p) Pull Off  (b) Bend (r) Release (v) Vibrato (x) Muted

Tabs for Song : 
BPM : 200

Intro:

E|-----------------
B|--------5--------
G|-----------------
D|-----6-----------
A|--4--------------
E|-----------------

E|-----------------
B|-----------------
G|--------4--------
D|-----6-----------
A|--0--------------
E|-----------------

E|-----------------
B|-----------------
G|--------1--------
D|-----------------
A|-----2-----------
E|--0--------------

E|--------------0--------
B|-----------------------
G|--------8--------8-----
D|--------------------9--
A|-----9-----------------
E|--7--------------------
VERSO 1:
    
E|-----------------
B|--------5--------
G|-----------------
D|-----6-----------
A|--4--------------
E|-----------------
        
E|-----------------
B|-----------------
G|--------4--------
D|-----6-----------
A|--0--------------
E|-----------------
     
E|-----------------
B|-----------------
G|--------1--------
D|-----------------
A|-----2-----------
E|--0--------------
 
E|-----------
B|-----------
G|--------8--
D|-----------
A|-----9-----
E|--7--------
    
E|-----------------
B|--------5--------
G|-----------------
D|-----6-----------
A|--4--------------
E|-----------------

E|-----------------
B|-----------------
G|--------4--------
D|-----6-----------
A|--0--------------
E|-----------------

E|-----------------
B|-----------------
G|--------1--------
D|-----------------
A|-----2-----------
E|--0--------------

E|-----------
B|-----------
G|--------8--
D|-----------
A|-----9-----
E|--7--------
   
E|-----------------
B|--------5--------
G|-----------------
D|-----6-----------
A|--4--------------
E|-----------------
 
E|-----------------
B|-----------------
G|--------4--------
D|-----6-----------
A|--0--------------
E|-----------------

E|-----------------
B|-----------------
G|--------1--------
D|-----------------
A|-----2-----------
E|--0--------------

E|-----------
B|-----------
G|--------8--
D|-----------
A|-----9-----
E|--7--------
   
E|-----------------
B|--------5--------
G|-----------------
D|-----6-----------
A|--4--------------
E|-----------------

E|-----------------
B|-----------------
G|--------4--------
D|-----6-----------
A|--0--------------
E|-----------------

E|-----------------
B|-----------------
G|--------1--------
D|-----------------
A|-----2-----------
E|--0--------------

E|-----------
B|-----------
G|--------8--
D|-----------
A|-----9-----
E|--7--------
  
E|--12----7--
B|--12----7--
G|-----------
D|-----------
A|-----------
E|-----------

E|--------------------------
B|--------5--------5-----5--
G|--------------------------
D|-----6--------6-----6-----
A|--4--------4--------------
E|--------------------------

E|--------------------------
B|-----------------5--------
G|--------4--------------4--
D|-----6--------6-----6-----
A|--0--------0--------------
E|--------------------------

E|--------------------------
B|--------------------------
G|--------1--------1-----1--
D|--------------------------
A|-----2--------2-----2-----
E|--0--------0--------------

E|-----------------0--------
B|--------------------------
G|--------8-----------8-----
D|-----------------------9--
A|-----9--------9-----------
E|--7--------7--------------
  
E|--------------------------
B|--------5--------5-----5--
G|--------------------------
D|-----6--------6-----6-----
A|--4--------4--------------
E|--------------------------

E|--------------------------
B|-----------------5--------
G|--------4--------------4--
D|-----6--------6-----6-----
A|--0--------0--------------
E|--------------------------

E|--------------------------
B|--------------------------
G|--------1--------1-----1--
D|--------------------------
A|-----2--------2-----2-----
E|--0--------0--------------

E|--------------------------
B|--------------------------
G|--------8--------8-----8--
D|--------------------------
A|-----9--------9-----9-----
E|--7--------7--------------

E|--------------------------
B|--------5--------5-----5--
G|--------------------------
D|-----6--------6-----6-----
A|--4--------4--------------
E|--------------------------

E|--------------------------
B|-----------------5--------
G|--------4--------------4--
D|-----6--------6-----6-----
A|--0--------0--------------
E|--------------------------

E|--------------------------
B|--------------------------
G|--------1--------1-----1--
D|--------------------------
A|-----2--------2-----2-----
E|--0--------0--------------

E|--------------------------
B|--------------------------
G|--------8--------8-----8--
D|--------------------------
A|-----9--------9-----9-----
E|--7--------7--------------

E|--------------------------
B|--------5--------5-----5--
G|--------------------------
D|-----6--------6-----6-----
A|--4--------4--------------
E|--------------------------

E|--------------------------
B|-----------------5--------
G|--------4--------------4--
D|-----6--------6-----6-----
A|--0--------4--------------
E|--------------------------

E|--------------------------
B|--------------------------
G|--------1--------1-----1--
D|--------------------------
A|-----2--------2-----2-----
E|--0--------0--------------

E|--------------------------
B|--------------------------
G|--------8--------8-----8--
D|--------------------------
A|-----9--------9-----9-----
E|--7--------7--------------

E|--------------------------
B|--------5--------5-----5--
G|--------------------------
D|-----6--------6-----6-----
A|--4--------4--------------
E|--------------------------

E|--------------------------
B|-----------------5--------
G|--------4--------------4--
D|-----6--------6-----6-----
A|--0--------0--------------
E|--------------------------

E|--------------------------
B|--------------------------
G|--------1--------1-----1--
D|--------------------------
A|-----2--------2-----2-----
E|--0--------0--------------

E|--------------------------
B|--------------------------
G|--------8--------8-----8--
D|--------------------------
A|-----9--------9-----9-----
E|--7--------7--------------

E|--0--------12-------
B|--0--------12-------
G|--8-----------------
D|--9-----------------
A|--9-----------------
E|--7-----------------

E|--------------------------
B|--------5--------5-----5--
G|--------------------------
D|-----6--------6-----6-----
A|--4--------4--------------
E|--------------------------

E|--------------------------
B|-----------------5--------
G|--------4--------------4--
D|-----6--------6-----6-----
A|--0--------0--------------
E|--------------------------

E|--------------------------
B|--------------------------
G|--1--1--1--1--1--1--1--1--
D|--2--2--2--2--2--2--2--2--
A|--2--2--2--2--2--2--2--2--
E|--0--0--0--0--0--0--0--0--

E|--------------------------
B|--------------------------
G|--8--8--8--8--8--8--8--8--
D|--8--8--8--8--8--8--8--8--
A|--9--9--9--9--9--9--9--9--
E|--7--7--7--7--7--7--7--7--


C#m              A
Contra la fuerza de un submarino 
E                       B
A conquistar a esa dama que tanto juega conmigo 
C#m              A
Voy por el mundo solo y sin amigos
E                       B
Voy dando tantas vueltas sin ningun sentido
C#m              A
Pero tu ayer cambiaste mi destino 
E                       B
Me diste vida, mucha ma?s vida que el vino
C#m              A
Me diste fuerza en los di?as fri?os
E                       B
Me diste ganas de extran?arte

tabs and chords, guitar tabs, music transcription, music technology, deep learning, music information retrieval, transcribe into tabs & chords, chordify, music renditions, songsterr, reverbnation, tabulature, bollywood chords, ultimate guitar, yousician, guitar lessons, acoustic guitar, electric guitar, guitar tuner, 911 tabs