Guitar Tabs for Back To You - Selena Gomez Tabs

(/) Slide Up  (\) Slide Down  (h) Hammer On  (p) Pull Off  (b) Bend (r) Release (v) Vibrato (x) Muted

Tabs for Song : Back to You by Selena Gomez

Intro
E|-----------------------------------------------------------------
B|--------------------------------------2--------------2-----------
G|--------3--------------4--1--------------------------------------
D|--1--1-----4--1--1--1--------1--3--3-----4--3--3--3-----4--3-----
A|-----------------------------------------------------------------
E|-----------------------------------------------------------------


took you like a shot, thought that i could 
E|-----------2-----------------------
B|--4--4--4-----0-----0--0--0--0-----
G|-----------------------------------
D|-----------------------------------
A|-----------------------------------
E|-----------------------------------

chase you with the cold evening
E|-----------------------------------------------
B|--0--------0-----------------------------------
G|--------3--------3--1-----1--------3--3--3-----
D|-----------------------------4-----------------
A|-----------------------------------------------
E|-----------------------------------------------

let a couple years water down how i'm feeling about you
E|--------------------------------------------------
B|--0-----------------------------------------------
G|--------3--1--1--------1--------------------3-----
D|-----------------4-----------4--4--1--4-----------
A|--------------------------------------------------
E|--------------------------------------------------

and everytime we talk, 
E|-----------2--------
B|--4--4--4-----0-----
G|--------------------
D|--------------------
A|--------------------
E|--------------------

every single word build up this moment and i gotta convince myself, 
E|-----------------------------------------------------------------
B|--0--0--0--0-----0--------0--------------------------------------
G|-----------------------3--------3--1-----1--------3--3--3--3-----
D|--------------------------------------------4--------------------
A|-----------------------------------------------------------------
E|-----------------------------------------------------------------

i dont want it eventhough i do
E|--------------------------------------------
B|--0-----------------------------------------
G|--------3--1--1--------1-----------3--------
D|-----------------4--------4--4--4-----4-----
A|--------------------------------------------
E|--------------------------------------------

you could break my heart into two
E|--------------------------------
B|--------------------------------
G|--3--3--1-----1--1--1-----------
D|-----------------------4--4-----
A|--------------------------------
E|--------------------------------

but when it heals it beats for you
E|--------------------------------
B|--------------------------------
G|--3--3--1--1--1-----1-----------
D|-----------------------4--4-----
A|--------------------------------
E|--------------------------------

i know it's forward but it's true
E|-----------------------------------
B|-----------------------------------
G|-----3--3--1-----1--1--1-----3-----
D|--4-----------------------4--------
A|-----------------------------------
E|-----------------------------------

i wanna hold you, when am not supposed to
E|--------------2-----4--6--4--6--------------
B|--------0--2--------------------7-----------
G|-----3--------------------------------6-----
D|--4-----------------------------------------
A|--------------------------------------------
E|--------------------------------------------

when am lying close to someone else
E|--4--6--4-----6--9-----------------------------
B|--------------------7-----6-----4--------0-----
G|--------------------------------------6--------
D|-----------------------------------------------
A|-----------------------------------------------
E|-----------------------------------------------

you are stuch and i can't get you out o it
E|--------------------2-----4-----6--4-----6--4-----2--------
B|--------------0--2-----------------------------------4-----
G|--------3--------------------------------------------------
D|--4--------------------------------------------------------
A|-----------------------------------------------------------
E|-----------------------------------------------------------

if i could do it all again
E|--4--6--4-----6--4-----2-----------
B|--------------------------4--2-----
G|-----------------------------------
D|-----------------------------------
A|-----------------------------------
E|-----------------------------------

i know i'd go back to you
E|--------------------------
B|--2-----2-----------------
G|-----------1--1-----------
D|-----4-----------4--4-----
A|--------------------------
E|--------------------------

i know i'd go back to you
E|--2--4--6--4--2--------2-----
B|-----------------4--2--------
G|-----------------------------
D|-----------------------------
A|-----------------------------
E|-----------------------------


Paste any tab in acousterr's tab maker and we'll play it !!!
Now supports capo and sound effects for vibrato/pull-off/hammer/bends/mutes etc !!! Checkout help section
tabs and chords, guitar tabs, music contests, music covers, songsterr, reverbnation, renditions, tabulature, bollywood chords, ultimate guitar, yousician, guitar lessons, torrins, fender, gibson, acoustic guitar, electric guitar, youtube covers, gootar, guitar tuner, A-Z tabs, 911 tabs