Guitar Tabs for Back To The Future Guitarraviva

Back to The Future

Intro
E|--------9--7-----6-----6-----------------------------------------------------------
B|-----9--------------9-----9---7/9-----9-----8-----9--11-9--------8-----9--11-9-----
G|--6--------------------------------------------------------10----------------------
D|-----------------------------------------11-------------------11-------------------
A|-----------------------------------------------------------------------------------
E|-----------------------------------------------------------------------------------

Estrofa 1
E|--------------------------------------------------11-11----10-8--10-10b11----------
B|--9-----8-----9--11-9--------8-----9--11-9-----9-----------------------------------
G|-----------------------10-------------------8--------------------------------------
D|-----11-------------------11-------------------------------------------------------
A|-----------------------------------------------------------------------------------
E|-----------------------------------------------------------------------------------

Puente Estrofa 2 (palm mute)
E|-----------------------16-------
B|--------------14----14----------
G|-----13----13----13-------------
D|--13----13----------------------
A|--------------------------------
E|--------------------------------

Estrofa 2
E|--------------------------------------------------16-16-15-13-15-16b17-------------
B|--14----13----14-16-14-------13----14-16-14----14----------------------------------
G|-----------------------15-------------------13-------------------------------------
D|-----16-------------------16-------------------------------------------------------
A|-----------------------------------------------------------------------------------
E|-----------------------------------------------------------------------------------

Estribillo
E|--------------------------------------------------------
B|--7--6-----6--------------9--7--6-----6-----------------
G|--------8-----8---6/8--------------8-----8--6--8--------
D|--------------------------------------------------------
A|--------------------------------------------------------
E|--------------------------------------------------------

Puente
E|--------------------------------------------------------------------------------------------
B|--------------------------------------------------------------------------------------------
G|-----5--6--5-----5--------8--8--6-----6---------9b11-9--8--8---7b9--7--6--6---5b7--5--4--4--
D|--8-----------8-----6--------------9--------------------------------------------------------
A|-----------------------------------------9--------------------------------------------------
E|--------------------------------------------------------------------------------------------

Subida Final
E|--------------------------------------------------------
B|--------------------------------------14----15----------
G|--7-----9-----11----13----14----16-------14----16-------
D|-----9-----11----12----14----16----18-------------------
A|--------------------------------------------------------
E|--------------------------------------------------------

E|--------------------15-------14----15-17-17b19----------
B|--17----16----17-19----17-------------------------------
G|--------------------------17----------------------------
D|-----19-------------------------------------------------
A|--------------------------------------------------------
E|--------------------------------------------------------
tabs and chords, guitar tabs, music transcription, music technology, deep learning, music information retrieval, transcribe into tabs & chords, chordify, music renditions, songsterr, reverbnation, tabulature, bollywood chords, ultimate guitar, yousician, guitar lessons, acoustic guitar, electric guitar, guitar tuner, 911 tabs