Back On Track - Guitar Tabs

(/) Slide Up  (\) Slide Down  (h) Hammer On  (p) Pull Off  (b) Bend (r) Release (v) Vibrato (x) Muted

Tabs for Song : 
BPM : 120
9x
Song lyrics here 
E|--------------15-13----------------------------------------13-------
B|--15-------15-------16----13-15-15-------13-15----15----13----16-15-
G|-----15----------------15----------15----------15----15-------------
D|--------------------------------------------------------------------
A|--------------------------------------------------------------------
E|--------------------------------------------------------------------

E|--------------15-13----------------------------------------13-------
B|--15-------15-------16----13-15-15-------13-15----15----13----16-15-
G|-----15----------------15----------15----------15----15-------------
D|--------------------------------------------------------------------
A|--------------------------------------------------------------------
E|--------------------------------------------------------------------

E|--------------15-13----------------------------------------13-------
B|--15-------15-------16----13-15-15-------13-15----15----13----16-15-
G|-----15----------------15----------15----------15----15-------------
D|--------------------------------------------------------------------
A|--------------------------------------------------------------------
E|--------------------------------------------------------------------
4x
E|-----------------------------------------------------------------------------------------
B|--15----------------15----------------18----15-------------15----------------15-18-16-15-
G|-----15----17-15-17----17-15-17-15-17----------15-17-15-17----17-15-17-15-17-------------
D|-----------------------------------------------------------------------------------------
A|-----------------------------------------------------------------------------------------
E|-----------------------------------------------------------------------------------------

Song lyrics here 
E|--
B|--
G|--
D|--
A|--
E|--

Use manual mode to free up cursor. Paste any tab in acousterr tab maker and we'll play it !!!

About Back on Track (Billy Craddock album) : Back On Track is an album by country singer Billy "Crash" Craddock . It It had a contribution from notable artists like Billy "Crash" Craddock. Its music is influenced by genres - country.

tabs and chords, guitar tabs, music transcription, music technology, deep learning, music information retrieval, transcribe into tabs & chords, chordify, music renditions, songsterr, reverbnation, tabulature, bollywood chords, ultimate guitar, yousician, guitar lessons, acoustic guitar, electric guitar, guitar tuner, 911 tabs