Baby Beluga - Guitar Tabs

(/) Slide Up  (\) Slide Down  (h) Hammer On  (p) Pull Off  (b) Bend (r) Release (v) Vibrato (x) Muted

Tabs for Song : 
BPM : 200
Verse
E|--2-----2--0-----------0--2-----2-----------------2-----2-----5-----3--2--2-----0-----0--------
B|--------------3-----3-----------------3-----------------------------------------2-----2--------
G|-----------------2-----------------------------------------------------------------------------
D|--0-----------------------0-----------0-----------0-----------0-----------0--------------------
A|--------------------------------------------------------------------------------0-----0--------
E|-----------------------------------------------------------------------------------------------

E|--3-----------0-----------3-----------0-----------5-----3-----2-----0-----------------
B|-----2-----2-----2-----2-----2-----2-----2-----2-----------------------2--3-----------
G|--------0-----------0-----------0-----------0--------0-----0-----0--------2-----------
D|--------------------------------------------------------------------------0-----------
A|--0-----------0-----------0-----------0-----------0-----0-----0-----0-----------------
E|--------------------------------------------------------------------------------------
Chorus
E|--7-----------------7-----------------5-----------------5-----------------
B|-----------8-----------------8-----------------7-----------------7--------
G|--------7--------7--------7--------7--------7--------7--------7--------7--
D|--0--------0--------0--------0--------0--------0--------0--------0--------
A|--------------------------------------------------------------------------
E|--------------------------------------------------------------------------

E|--------------0-----------------------0-----------5--------3--------2--------0--------
B|--------3-----------3-----------3-----------3--------------------------------2--------
G|-----1-----1-----1-----1-----1-----1-----1-----1--------0--------0--------0--------0--
D|--------------------------------------------------------------------------------------
A|--------------------------------------------------0--------0--------0--------0--------
E|--0-----------------------0-----------------------------------------------------------

E|--
B|--
G|--
D|--
A|--
E|--

Song lyrics here 
E|--
B|--
G|--
D|--
A|--
E|--

Use manual mode to free up cursor. Paste any tab in acousterr tab maker and we'll play it !!!

About Baby Beluga : Baby Beluga is a children's music album and the title song by Canadian children The album begins with the sounds of whales communicating . An illustrated sing-along book was also published and sold separately as a companion to the first track . During the Macy's Thanksgiving Day Parade 1993, the song was sung and a blue It was released in 1980. The genre is children's music. The track was release in 1980.

About Raffi - Raffi Cavoukian is a Canadian singer-lyricist and author of Armenian descent . He is best known for his children's music . He was born in Egypt in Egypt . His mother named him after the Armenian poet Raffi . His father Arto Cavoukian was a well-known portrait photographer with a studio on Bloor Street in Toronto . His older brother, Onnig, is also a famous portrait photographer . Raffi frequented a guitar store near Yonge and Wellesley called Millwheel . He befriended John Lacey, a folk guitarist from Oakville, Ontario, who helped him improve his finger picking skills . He ran a coffee house at the University of Toronto until 1980 . Raffi had an affiliation to band(s) - Raffi. Raffi's music is influenced by genre(s) - children's music children's literature.

tabs and chords, guitar tabs, music transcription, music technology, deep learning, music information retrieval, transcribe into tabs & chords, chordify, music renditions, songsterr, reverbnation, tabulature, bollywood chords, ultimate guitar, yousician, guitar lessons, acoustic guitar, electric guitar, guitar tuner, 911 tabs