Guitar Tabs for F Min Pent

F Minor Pentatonic Scales:

1)


E|--------------------------------1--4-----------
B|--------------------------1--4-----------------
G|--------------------1--3-----------------------
D|--------------1--3-----------------------------
A|--------1--3-----------------------------------
E|--1--4-----------------------------------------

2) 

E|--------------------------------4--6-----------
B|--------------------------4--6-----------------
G|--------------------3--5-----------------------
D|--------------3--6-----------------------------
A|--------3--6-----------------------------------
E|--4--6-----------------------------------------

3) 

E|--------------------------------6--8-----------
B|--------------------------6--9-----------------
G|--------------------5--8-----------------------
D|--------------6--8-----------------------------
A|--------6--8-----------------------------------
E|--6--8-----------------------------------------

4)

E|--------------------------------8--11----------
B|--------------------------9--11----------------
G|--------------------8--10----------------------
D|--------------8--10----------------------------
A|--------8--11----------------------------------
E|--8--11----------------------------------------

5)

E|--------------------------------11-13----------
B|--------------------------11-13----------------
G|--------------------10-13----------------------
D|--------------10-13----------------------------
A|--------11-13----------------------------------
E|--11-13----------------------------------------








tabs and chords, guitar tabs, music transcription, music technology, deep learning, music information retrieval, transcribe into tabs & chords, chordify, music renditions, songsterr, reverbnation, tabulature, bollywood chords, ultimate guitar, yousician, guitar lessons, acoustic guitar, electric guitar, guitar tuner, 911 tabs