Guitar Tabs for Sequences

pentatonic sequences: 

1)

E|-----------------------------------------------------------------------------3--6-----
B|--------------------------------------------------------3--6-----------3--6-----------
G|-----------------------------------3--5-----------3--5-----------3--5-----------------
D|--------------3--5-----------3--5-----------3--5--------------------------------------
A|--------3--5-----------3--5-----------------------------------------------------------
E|--3--6--------------------------------------------------------------------------------

2) 

E|-----------------------------------------------------------------------------6--8-----
B|--------------------------------------------------------6--8-----------6--8-----------
G|-----------------------------------5--7-----------5--7-----------5--7-----------------
D|--------------5--8-----------5--8-----------5--8--------------------------------------
A|--------5--8-----------5--8-----------------------------------------------------------
E|--6--8--------------------------------------------------------------------------------

3) 

E|-----------------------------------------------------------------------------8--10----
B|--------------------------------------------------------8--11----------8--11----------
G|-----------------------------------7--10----------7--10----------7--10----------------
D|--------------8--10----------8--10----------8--10-------------------------------------
A|--------8--10----------8--10----------------------------------------------------------
E|--8--10-------------------------------------------------------------------------------

4) 

E|-----------------------------------------------------------------------------10-13----
B|--------------------------------------------------------11-13----------11-13----------
G|-----------------------------------10-12----------10-12----------10-12----------------
D|--------------10-12----------10-12----------10-12-------------------------------------
A|--------10-13----------10-13----------------------------------------------------------
E|--10-13-------------------------------------------------------------------------------

5) 

E|-----------------------------------------------------------------------------13-15----
B|--------------------------------------------------------13-15----------13-15----------
G|-----------------------------------12-15----------12-15----------12-15----------------
D|--------------12-15----------12-15----------12-15-------------------------------------
A|--------13-15----------13-15----------------------------------------------------------
E|--13-15-------------------------------------------------------------------------------



tabs and chords, guitar tabs, music transcription, music technology, deep learning, music information retrieval, transcribe into tabs & chords, chordify, music renditions, songsterr, reverbnation, tabulature, bollywood chords, ultimate guitar, yousician, guitar lessons, acoustic guitar, electric guitar, guitar tuner, 911 tabs