Guitar Tabs for Ayinde Bakare And His Meranda Band - Eko Akete / Aduran Fun Awon Abiyamo (

(/) Slide Up  (\) Slide Down  (h) Hammer On  (p) Pull Off  (b) Bend (r) Release (v) Vibrato (x) Muted

Tabs & Chords
BPM : 133.0
Check Track 2 for Chord Positions 

    B                 E     F#    G#m                                 B                       
E|--------------------------------------------------------------------1--1-----3-----0--------
B|--------------------------------------------------------------------------------4-----2--0--
G|--------------------------------------------------------------------------------------------
D|-----------1--1-----2-----4-----------------------------------------------------------------
A|--2-----2-----------------------------2-----2--2-----2--1--2-----2--------------------------
E|--------------------------------4-----------------------------------------------------------

                                        E              F#                   E                 
E|-----------------------------------------------4-----------------------0--0-----4--4--4-----
B|--2--0-----------------------------------0-----------------2-----4--------------------------
G|-----------1--------------------------1-----1-----------------------------------------------
D|--------------------------------1--------------------4--------------0--------------------2--
A|-----------------2--2--2--2--2--------------------------------------------------------------
E|--------------------------------------------------------------------------------------------

          B                                                                 E                 
E|--------0--------------------------------------------------------------0--------------------
B|--2-----------2--4--0--2--0-----------------------------------------------------------------
G|--------------------------------1-----------------------------------------------1--------1--
D|-----------------------------------4--------------------------------------2--------2--2-----
A|-----------------------------------------2--2--2-----2-----2--2--2--2-----------------------
E|--------------------------------------------------------------------------------------------

                B           C#m                  F#                   B              
E|-----------------------------------------------------------------------------------
B|--------------------------------2--2-----2--0-----------------------------4--4--4--
G|--1--------1-----------------1-----------------3--1--------------------------------
D|-----2--------------------2--------------------------2--1-----4--------------------
A|--------------4--2--2--------------------------------------4--------2--------------
E|-----------------------------------------------------------------------------------

Guitar Tabs for Ayinde Bakare And His Meranda Band - Eko Akete / Aduran Fun Awon Abiyamo (






    B                 E     F#    G#m                                 B                       
E|--2-----------------0-----2-----4-----------------------------------2-----------------------
B|--4-----------------0-----2-----4-----------------------------------4-----------------------
G|--4-----------------1-----3-----4-----------------------------------4-----------------------
D|--4-----------------2-----4-----6-----------------------------------4-----------------------
A|--2-----------------2-----4-----6-----------------------------------2-----------------------
E|--------------------0-----2-----4-----------------------------------------------------------

                                        E              F#                   E                 
E|--------------------------------------0--------------2--------------------0-----------------
B|--------------------------------------0--------------2--------------------0-----------------
G|--------------------------------------1--------------3--------------------1-----------------
D|--------------------------------------2--------------4--------------------2-----------------
A|--------------------------------------2--------------4--------------------2-----------------
E|--------------------------------------0--------------2--------------------0-----------------

          B                                                                 E                 
E|--------2-----------------------------------------------------------------0-----------------
B|--------4-----------------------------------------------------------------0-----------------
G|--------4-----------------------------------------------------------------1-----------------
D|--------4-----------------------------------------------------------------2-----------------
A|--------2-----------------------------------------------------------------2-----------------
E|--------------------------------------------------------------------------0-----------------

                B           C#m                  F#                   B              
E|--------------2-----------4--------------------2--------------------2--------------
B|--------------4-----------5--------------------2--------------------4--------------
G|--------------4-----------6--------------------3--------------------4--------------
D|--------------4-----------6--------------------4--------------------4--------------
A|--------------2-----------4--------------------4--------------------2--------------
E|-----------------------------------------------2-----------------------------------

tabs and chords, guitar tabs, music transcription, music technology, deep learning, music information retrieval, transcribe into tabs & chords, chordify, music renditions, songsterr, reverbnation, tabulature, bollywood chords, ultimate guitar, yousician, guitar lessons, acoustic guitar, electric guitar, guitar tuner, 911 tabs