Guitar Tabs for Away In A Manger (melody)(g)

(/) Slide Up  (\) Slide Down  (h) Hammer On  (p) Pull Off  (b) Bend (r) Release (v) Vibrato (x) Muted

Tabs for Song : Away In A Manger

   Away  in a manger, no crib for a bed.  The little Lord Jesus laid down his sweet head
E|-----------------------------------------------------------------------------------
B|-----------------------------------------------------------------------------------
G|--7--7--5--4--4-----------------------------------------------------------------4--
D|-----------------7--5--5-----4-----------------------------7--4--------------5-----
A|--------------------------------7--5-----5--5--7--5-----5-----------7--5-----------
E|-----------------------------------------------------------------------------------
   The stars in the sky look down where he lay. The little Lord Jesus asleep on the hay.
E|--------------------------------------------------------------------------------------
B|--------------------------------------------------------------------------------------
G|--7--7-----5--4--4--------------------------------5--4--------4-----------------------
D|--------------------7--5-----5--4--------------------------7-----7--5--7--------4--5--
A|--------------------------------------7--5-----5-----------------------------7--------
E|--------------------------------------------------------------------------------------

Song lyrics here
E|--
B|--
G|--
D|--
A|--
E|--

Paste any tab in acousterr's tab maker and we'll play it !!!
Now supports capo and sound effects for vibrato/pull-off/hammer/bends/mutes etc !!! Checkout help section
tabs and chords, guitar tabs, music transcription, music technology, deep learning, music information retrieval, transcribe into tabs & chords, chordify, music renditions, songsterr, reverbnation, tabulature, bollywood chords, ultimate guitar, yousician, guitar lessons, acoustic guitar, electric guitar, guitar tuner, 911 tabs