Guitar Tabs for Awargi Se - Love Games Tabs

(/) Slide Up  (\) Slide Down  (h) Hammer On  (p) Pull Off  (b) Bend (r) Release (v) Vibrato (x) Muted

Tabs for Song : Awargi Se

Awargi Se Dil Bhar Gaya Teri Gali Mein Rehne Laga
E|--------10-8--10-------10-8-----------------------------------------
B|--10-11----------10-11-------11-10-8--10-11-10-11-8--10-11-10-8-----
G|-----------------------------------------------------------------10-
D|--------------------------------------------------------------------
A|--------------------------------------------------------------------
E|--------------------------------------------------------------------

Jaise Kabhi Bhi Ki Na Kisiki Teri Fikar Mein Rehne Laga
E|--------10-8--10----13-11-10-------------------------------------
B|--10-11----------10----------10-8--10-11-10-11-8--10-11-10-8-----
G|--------------------------------------------------------------10-
D|-----------------------------------------------------------------
A|-----------------------------------------------------------------
E|-----------------------------------------------------------------

Tere Aansu Piyu Main Kabhi Tujhko Hassaun Tujhe Door Se Dekhun Kabhi Dil Mein Basaun
E|--------------------------------------------------------------------------------------
B|--8--10-11-8--------8--8--10-11-8--------8--8--10-11-8--------8--8--10-11-8--------8--
G|--------------10-10----------------10-10----------------10-10----------------10-10----
D|--------------------------------------------------------------------------------------
A|--------------------------------------------------------------------------------------
E|--------------------------------------------------------------------------------------

Tere Khaatir Jeeyun Main Kabhi Tujhpe Lutaaun Ye Jaan Meri Jaan
E|-----8--10----------------8--10----------------8--10-------------
B|--11-------11-10-10-11-11-------11-10-10-11-11-------11-10-10-11-
G|-----------------------------------------------------------------
D|-----------------------------------------------------------------
A|-----------------------------------------------------------------
E|-----------------------------------------------------------------

Haan Tu..Bas Tu..
E|-----13-11----11-10-------13-17-18-
B|--11-------13-------10/11----------
G|-----------------------------------
D|-----------------------------------
A|-----------------------------------
E|-----------------------------------

Again Repeat Like Part 1..
tabs and chords, guitar tabs, music transcription, music technology, deep learning, music information retrieval, transcribe into tabs & chords, chordify, music renditions, songsterr, reverbnation, tabulature, bollywood chords, ultimate guitar, yousician, guitar lessons, acoustic guitar, electric guitar, guitar tuner, 911 tabs