Guitar Tabs for Ave Maria

(/) Slide Up  (\) Slide Down  (h) Hammer On  (p) Pull Off  (b) Bend (r) Release (v) Vibrato (x) Muted

Tabs for Song : 

Song lyrics here
E|-----------------------------------------------0-----------------1-----------------0-----------------0--------
B|-----------1-----------------1--------------1-----1-----------1-----1-----------1-----1-----------1-----1-----
G|--------0-----0-----------0-----0--------0-----------3-----2-----------2-----0-----------0-----0-----------0--
D|-----2-----------2-----2-----------2--------------------------------------------------------------------------
A|--3-----------------3-----------------3-----------------3-----------------3-----------------3-----------------
E|--------------------------------------------------------------------------------------------------------------

Song lyrics here
E|--------------------------------------0--------------------------------------------------0-----------------------------0--------------------------
B|--1-----------1--------------0-----1-----------1--------3-----------------1-----------1-----1-----------------3--------------3--1-----0--------0--
G|-----0-----0--------------2-----2-----------0-----0--------0-----------0-----2-----2-----------2--------------------2--------------------2--------
D|--------2--------2-----4-----------------2-----------2--------0-----0-----------2-----------------2--------------3--------3--------0--------3-----
A|--3-----------------0--------------------------------------------2--------0--------------------------0--------------------------------------------
E|--------------------------------------3-----------------3-----------------------------------------------------1-----------------3--------3--------

E|-----------------0-----------------0--0--------0--------------------0--2--0--------0--------------------------------------------------0--1--------
B|--1-----------1-----1-----------------------1-----3--1--0-----------------------0--------0--4--------------0--3-----------0--------3--------3--0--
G|-----0-----0-----------0--------0--------1--------------------2--------------2--------2--------2-----------------1-----------2--1-----0--1--------
D|--------2-----------------2--------------------------------2--------------------------------------1-----1-----------3-----------0--3--------3--0--
A|--3--------------------------------------------------------------------------------------------------------------------2--------------------------
E|--------------------------------------------------------------------------------------------------------------------------------------------------

E|-----------------0--------------0--------------------------------------0--------------------------------------------------------------------
B|--1-----------1--------------1-----3--3-----------0--------------5--8-----2--3-----------3-----------0--1-----------------0-----------------
G|-----2-----2--------------2--------------0-----------0--------6-----------------------4-----4-----2--------2-----0-----------0--------0--0--
D|--------2--------------4--------------------0--------------7-----------------------5-----------0--------------4-----------------------------
A|--0-----------------0-----------------2--------2--------0-----------------------5--------------------------------------2--------------------
E|--------------------------------------------------------------------------------------------------------------------3-----------3-----------

E|-----------------------------------0-----------------------------------------------------------------1--0-----------------------------------------
B|--3-----------------------2--3--------3--------1-----------------1--------3--------------------2--3--------3--1--------1-----------------1--------
G|--------0--------0-----------------------0--------0-----------0--------0-----0-----------0-----------2--0-----------2-----2-----------2-----2--0--
D|-----3--------3--------3--------3-----------2--------2-----2--------2-----------3-----3--------------------3-----2-----------2-----2--------------
A|-----------2--------------------------3-----------------3--------------------------2--------------------------0-----------------0-----------------
E|--3-----------------3-----------------------------------------------------3-----------------3-----------------------------------------------------

E|-----------------------------0-----0--3--------1-----------------1--------0-----------------------------------------------------------------------
B|--3-----------------------------4--------3--------3-----------3--------------------3--------1--0--1--4--3--1--3-----------0--------------0--------
G|-----0-----0--------------1-----------------2--------2-----2--------------------2--------------------------------0-----0-----0--------0-----0-----
D|--------3--------3-----2-----------------0--------------0--------------------3--------------------------------------0--------------0-----------0--
A|--------------2-----------------------------------------------------------------------------------------------------------------------------------
E|--3-----------------0-----------------------------------------------------1-----------------2-----------------3-----------------1-----------------

E|--------------------------------------0--------------------------------------------------------------0-----------------0-----------------0--------
B|--1-----------1--------------0-----1-----------1--------3-----------------1-----------1-----1-----1-----1-----------1-----1-----------1-----1-----
G|-----0-----0--------------2-----2-----------0-----0--------0-----------0-----0-----0-----0-----0-----------0-----3-----------3-----3-----------3--
D|--------2--------2-----4-----------------2-----------2--------0-----0-----------2-----------------------------------------------------------------
A|--3-----------------0--------------------------------------------2--------3-----------------------------------3-----------------3-----------------
E|--------------------------------------3-----------------3-----------------------------------------------------------------------------------------

E|-----------1-----------------1--------------------------0-----0--3------3p8--\
B|--------1-----1-----------3-----3--------------1-----1-----1--------5--------
G|-----2-----------2-----1-----------1--------0-----0--------------------------
D|-----------------------------------------2-----------------------------------
A|--3-----------------3-----------------3--------------------------------------
E|-----------------------------------------------------------------------------

Paste any tab in acousterr's tab maker and we'll play it !!!
Now supports capo and sound effects for vibrato/pull-off/hammer/bends/mutes etc !!! Checkout help section
tabs and chords, guitar tabs, music transcription, music technology, deep learning, music information retrieval, transcribe into tabs & chords, chordify, music renditions, songsterr, reverbnation, tabulature, bollywood chords, ultimate guitar, yousician, guitar lessons, acoustic guitar, electric guitar, guitar tuner, 911 tabs