Autumn Wind - Guitar Tabs

(/) Slide Up  (\) Slide Down  (h) Hammer On  (p) Pull Off  (b) Bend (r) Release (v) Vibrato (x) Muted

Tabs for Song : 
BPM : 220

Song lyrics here 
E|--------------------5-----------------------------------------------------------------------------------------------------------------------------------------------------------------------------
B|-----------5--6-----------6-----------5-----------------------------------------------------------------------------------------------------------------------------------------------------------
G|--7-----7-----------------------------------------7-----7--7--5-----------5-----------------------------------------------5-----------------------------------------------------------------------
D|--------------------------------------------------------------------7-----------------5-----------5-----5--5--7-----8-----------------3-----------------------------------------------------------
A|--------------------------------------------------------------------------------------------------------------------------------------------------------------8-----7-----5-----------5-----------
E|--------------------------------------------------------------------------------------------------------------------------------------------------5-----5--8--------------------------------------

Song lyrics here 
E|--------------------5------------------------------------------------------------------------------------------------------------------------------------------------------------------------------
B|-----------5--6-----------6-----------5-----------------------------------------------------------------------------------------------------------------------------------------------------------
G|--7-----7-----------------------------------------7-----7--7--5-----------5-----------------------------------------------5-----------------------------------------------------------------------
D|--------------------------------------------------------------------7-----------------5-----------5-----5--5--7-----8-----------------3-----------------------------------------------------------
A|--------------------------------------------------------------------------------------------------------------------------------------------------------------8-----7-----5-----------5-----------
E|--------------------------------------------------------------------------------------------------------------------------------------------------5-----5--8--------------------------------------

Song lyrics here 
## break ##

Song lyrics here 
E|--------------------------------------------------------------------------------------5-----------
B|--------5--6--------5--6-----5--6--8--6--5--------------5--6--------5--6-----5--6--8-----6--------
G|--7-----------7-----------7-----------------5-----------------5-----------------------------7-----
D|--------------------------------------------------7-----------------------7-----------------------
A|--------------------------------------------------------------------------------------------------
E|--------------------------------------------------------------------------------------------------

Song lyrics here 
E|--------------------------------------------------------------------------------------5-----------
B|--------5--6--------5--6-----5--6--8--6--5--------------5--6--------5--6-----5--6--8-----6--------
G|--7-----------7-----------7-----------------5-----------------5-----------5-----------------7-----
D|--------------------------------------------------7-----------------------------------------------
A|--------------------------------------------------------------------------------------------------
E|--------------------------------------------------------------------------------------------------

Song lyrics here 
E|--------------------------------------------------------------------------------------5-----------
B|--------5--6--------5--6-----5--6--8--6--5--------------5--6--------5--6-----5--6--8-----6--------
G|--7-----------7-----------7-----------------5-----------------5-----------------------------7-----
D|--------------------------------------------------7-----------------------7-----------------------
A|--------------------------------------------------------------------------------------------------
E|--------------------------------------------------------------------------------------------------

Song lyrics here 
E|--------------------------------------------------------------------------------------5-----------
B|--------5--6--------5--6-----5--6--8--6--5--------------5--6--------5--6-----5--6--8-----6--------
G|--7-----------7-----------7-----------------5-----------------5-----------5-----------------7-----
D|--------------------------------------------------7-----------------------------------------------
A|--------------------------------------------------------------------------------------------------
E|--------------------------------------------------------------------------------------------------

Song lyrics here 
E|--1-----------3-----------0-----------1-----0-----
B|--3-----------3-----------1-----------3-----1-----
G|--3-----------3-----------2-----------2-----2-----
D|--3-----------0-----------2-----------0-----2-----
A|--1-----------------------------------------------
E|--------------------------------------------------

Song lyrics here 
E|--1-----------1-----3-----0-----------1-----------
B|--3-----------1-----3-----1-----------3-----------
G|--3-----------2-----3-----2-----------3-----------
D|--3-----------3-----0-----2-----------3-----------
A|--1-----------3-----------------------1-----------
E|--------------1-----------------------------------

Song lyrics here 
E|--1-----------3-----------0-----------1-----0-----
B|--3-----------3-----------1-----------3-----1-----
G|--3-----------3-----------2-----------2-----2-----
D|--3-----------0-----------2-----------0-----2-----
A|--1-----------------------------------------------
E|--------------------------------------------------

Song lyrics here 
E|--1-----------1-----3-----0-----------1-----------
B|--3-----------1-----3-----1-----------3-----------
G|--3-----------2-----3-----2-----------3-----------
D|--3-----------3-----0-----2-----------3-----------
A|--1-----------3-----------------------1-----------
E|--------------1-----------------------------------

Song lyrics here 
E|--1-----------3-----------0-----------1-----0-----
B|--3-----------3-----------1-----------3-----1-----
G|--3-----------3-----------2-----------2-----2-----
D|--3-----------0-----------2-----------0-----2-----
A|--1-----------------------------------------------
E|--------------------------------------------------

Song lyrics here 
E|--1-----------1-----3-----0-----------1-----------
B|--3-----------1-----3-----1-----------3-----------
G|--3-----------2-----3-----2-----------3-----------
D|--3-----------3-----0-----2-----------3-----------
A|--1-----------3-----------------------1-----------
E|--------------1-----------------------------------

Song lyrics here 
E|--1-----------3-----------0-----------1-----0-----
B|--3-----------3-----------1-----------3-----1-----
G|--3-----------3-----------2-----------2-----2-----
D|--3-----------0-----------2-----------0-----2-----
A|--1-----------------------------------------------
E|--------------------------------------------------

Song lyrics here 
E|--1-----------1-----3-----0-----------1-----------
B|--3-----------1-----3-----1-----------3-----------
G|--3-----------2-----3-----2-----------3-----------
D|--3-----------3-----0-----2-----------3-----------
A|--1-----------3-----------------------1-----------
E|--------------1-----------------------------------

Song lyrics here 
E|--1-----------3-----------0-----------1-----0-----
B|--3-----------3-----------1-----------3-----1-----
G|--3-----------3-----------2-----------2-----2-----
D|--3-----------0-----------2-----------0-----2-----
A|--1-----------------------------------------------
E|--------------------------------------------------

Song lyrics here 
E|--1-----------1-----3-----0-----------1-----------
B|--3-----------1-----3-----1-----------3-----------
G|--3-----------2-----3-----2-----------3-----------
D|--3-----------3-----0-----2-----------3-----------
A|--1-----------3-----------------------1-----------
E|--------------1-----------------------------------

Song lyrics here 
E|--1-----------3-----------0-----------1-----0-----
B|--3-----------3-----------1-----------3-----1-----
G|--3-----------3-----------2-----------2-----2-----
D|--3-----------0-----------2-----------0-----2-----
A|--1-----------------------------------------------
E|--------------------------------------------------

Song lyrics here 
E|--1-----------1-----3-----0-----------1-----------
B|--3-----------1-----3-----1-----------3-----------
G|--3-----------2-----3-----2-----------3-----------
D|--3-----------3-----0-----2-----------3-----------
A|--1-----------3-----------------------1-----------
E|--------------1-----------------------------------

Song lyrics here 
E|--1-----------3-----------0-----------1-----0-----
B|--3-----------3-----------1-----------3-----1-----
G|--3-----------3-----------2-----------2-----2-----
D|--3-----------0-----------2-----------0-----2-----
A|--1-----------------------------------------------
E|--------------------------------------------------

Song lyrics here 
E|--1-----------1-----3-----0-----------1-----------
B|--3-----------1-----3-----1-----------3-----------
G|--3-----------2-----3-----2-----------3-----------
D|--3-----------3-----0-----2-----------3-----------
A|--1-----------3-----------------------1-----------
E|--------------1-----------------------------------

Song lyrics here 
E|--1-----------3-----------0-----------1-----0-----
B|--3-----------3-----------1-----------3-----1-----
G|--3-----------3-----------2-----------2-----2-----
D|--3-----------0-----------2-----------0-----2-----
A|--1-----------------------------------------------
E|--------------------------------------------------

Song lyrics here 
E|--1-----------1-----3-----0-----------1-----------
B|--3-----------1-----3-----1-----------3-----------
G|--3-----------2-----3-----2-----------3-----------
D|--3-----------3-----0-----2-----------3-----------
A|--1-----------3-----------------------1-----------
E|--------------1-----------------------------------

Song lyrics here 
E|--------------------------------------------------------------------------------------5-----------
B|--------5--6--------5--6-----5--6--8--6--5--------------5--6--------5--6-----5--6--8-----6--------
G|--7-----------7-----------7-----------------5-----------------5-----------------------------7-----
D|--------------------------------------------------7-----------------------7-----------------------
A|--------------------------------------------------------------------------------------------------
E|--------------------------------------------------------------------------------------------------

Song lyrics here 
E|--------------------------------------------------------------------------------------5-----------
B|--------5--6--------5--6-----5--6--8--6--5--------------5--6--------5--6-----5--6--8-----6--------
G|--7-----------7-----------7-----------------5-----------------5-----------5-----------------7-----
D|--------------------------------------------------7-----------------------------------------------
A|--------------------------------------------------------------------------------------------------
E|--------------------------------------------------------------------------------------------------

Song lyrics here 
E|--------------------------------------------------------------------------------------5-----------
B|--------5--6--------5--6-----5--6--8--6--5--------------5--6--------5--6-----5--6--8-----6--------
G|--7-----------7-----------7-----------------5-----------------5-----------------------------7-----
D|--------------------------------------------------7-----------------------7-----------------------
A|--------------------------------------------------------------------------------------------------
E|--------------------------------------------------------------------------------------------------

Song lyrics here 
E|--------------------------------------------------------------------------------------5-----------
B|--------5--6--------5--6-----5--6--8--6--5--------------5--6--------5--6-----5--6--8-----6--------
G|--7-----------7-----------7-----------------5-----------------5-----------5-----------------7-----
D|--------------------------------------------------7-----------------------------------------------
A|--------------------------------------------------------------------------------------------------
E|--------------------------------------------------------------------------------------------------

Song lyrics here 
E|--------------------5-----------------------------------------------------------------------------------------------------------------------------------------------------------------------------
B|-----------5--6-----------6-----------5-----------------------------------------------------------------------------------------------------------------------------------------------------------
G|--7-----7-----------------------------------------7-----7--7--5-----------5-----------------------------------------------5-----------------------------------------------------------------------
D|--------------------------------------------------------------------7-----------------5-----------5-----5--5--7-----8-----------------3-----------------------------------------------------------
A|--------------------------------------------------------------------------------------------------------------------------------------------------------------8-----7-----5-----------5-----------
E|--------------------------------------------------------------------------------------------------------------------------------------------------5-----5--8--------------------------------------

E|-----------------------------------------------------------------18-22-20-22-
B|-----------------------------------20-22-20-------------20-22-20-------------
G|--------------21-22----------21-19----------21-19-21-22----------------------
D|-----------22-------20-19-20-------------------------------------------------
A|-----20-22-------------------------------------------------------------------
E|--22-------------------------------------------------------------------------

Use manual mode to free up cursor. Paste any tab in acousterr tab maker and we'll play it !!!

About The Autumn Wind : "The Autumn Wind" is a sports-themed poem adapted from Mary Jane Carr's "Pirate Wind" It is synonymous with the NFL's Las Vegas Raiders . Narrated by John Facenda, this production has been dubbed "The Battle Hymn of the Raider Nation" The poem was first used for the team's official team yearbook film in 1974 . Legend has it that when Al Davis heard "The Autumn Wind" for the first time, he told then NFL Films President Ed Sabol that he loved it . The Autumn Wind is a pirate . He wears a hooded sash, With a silver hat about his head, And a bristling black mustache . The Autumn Wind has a significant contribution from artist(s) Steve Sabol,Ed Sabol,Las Vegas Raiders,John Facenda.

tabs and chords, guitar tabs, music transcription, music technology, deep learning, music information retrieval, transcribe into tabs & chords, chordify, music renditions, songsterr, reverbnation, tabulature, bollywood chords, ultimate guitar, yousician, guitar lessons, acoustic guitar, electric guitar, guitar tuner, 911 tabs