Auld Lang Syne - Guitar Tabs

(/) Slide Up  (\) Slide Down  (h) Hammer On  (p) Pull Off  (b) Bend (r) Release (v) Vibrato (x) Muted

Tabs for Song : 
BPM : 200

Song lyrics here 
E|-----------------------------------------11-13-13-11----------------------------------------
B|--------------13-11----11-13-11-------13-------------13-13----11----11-13-11----------------
G|-----13-12-13-------13----------13-13----------------------13----13----------13-10-10----13-
D|--13----------------------------------------------------------------------------------13----
A|--------------------------------------------------------------------------------------------
E|--------------------------------------------------------------------------------------------

E|--13-11-------------------13-11-------11-13-13-11----------------------------------------
B|--------13-13----11----11-------13-13-------------13-13----11----11-13-11----------------
G|--------------13----13----------------------------------13----13----------13-10-10----13-
D|-----------------------------------------------------------------------------------13----
A|-----------------------------------------------------------------------------------------
E|-----------------------------------------------------------------------------------------

Song lyrics here 
E|--
B|--
G|--
D|--
A|--
E|--

Use manual mode to free up cursor. Paste any tab in acousterr tab maker and we'll play it !!!

About Auld Lang Syne : Robert Burns set to the tune of a traditional folk song (Roud # 6294) It is well known in many countries, especially in the English-speaking world . It is sung at funerals, graduations, and as a farewell or ending to other occasions . The poem's Scots title may be translated into standard English as "old long since" or, less literally, "long long ago", "days gone by", or "old times" The phrase "Auld Lang Syne" is also used in similar poems by Robert Ayton (1570–1638), Allan Ramsay (1686–1757) and James Watson (1711). Matthew Fitt uses the phrase "in the days of auld lang sy Auld Lang Syne has a significant contribution from artist(s) Robert Burns.

tabs and chords, guitar tabs, music transcription, music technology, deep learning, music information retrieval, transcribe into tabs & chords, chordify, music renditions, songsterr, reverbnation, tabulature, bollywood chords, ultimate guitar, yousician, guitar lessons, acoustic guitar, electric guitar, guitar tuner, 911 tabs