Bass Tabs for Audioslave - Like A Stone

Audioslave - Like A Stone

*****DROP D*****

Verse
G|--------------------------------------------------------------------------------------------------
D|-----------------------------------------------------------------------------------------3--------
A|--------x---x-----5\x------------x---x----5\x-----------x---x-----5\x------------x--x----------5--
D|--5-----------------------5-----------------------5-----------------------5-----------------------

Chorus
G|-----------------------------------------------------------------------------------------------------
D|-----------------------------------------------------------------------------------------------------
A|-------------/8---------------------------6/8--10/12-10----10\6--3-------/8----------------/6--------
D|--5--7--8--------7--5--------5------5/8-----------------------------5-----------7-----5--------7--5--

G|-----------------------------------------------------------
D|-----------------------------------------------------------
A|-------/5-----------5--5--5----/5-----------5-----5--5-----
D|--5--------0--0--0-----------------0--0--0-----------------

Guitar Solo
G|-----------------------------------------------------------------------------------------------------------
D|-----------------------------------------------------------------------------------------------------------
A|-------------/8------------------------------------6/8--10/12-10----10\6--6--6--6--6--6--6--6--6-----------
D|--5--7--8--------7--5--------5--7--8--8--8--8-----------------------------------------------------5--5--5--

G|-----------------------------------------------------------------------------------------------------------
D|-----------------------------------------------------------------------------------------------------------
A|--------------------/8-8--8--8--8--8--8--8--------------------------/6-6--6--6--6--6--6--6-----------------
D|--5--5--5--5--5--5--------------------------5--5--5--5--5--5--5--5--------------------------5--5--5--5--5--

G|--------------------------------------
D|--------------------------------------
A|-----------5--5--5--5--5--5--5--5-----
D|--5--5--5--------------------------0--

Bridge

G|--------------------------------------------------------------------------------------
D|--------------------------------------------------------------------------------------
A|-----------------6--6-----------5--6--5--6--6--3--5-----------------------------------
D|-----------------------8--8--0-----------------------0--0--0--0--0--0--0--0--0--0--0--

Final Note -> Eb



  
tabs and chords, guitar tabs, music transcription, music technology, deep learning, music information retrieval, transcribe into tabs & chords, chordify, music renditions, songsterr, reverbnation, tabulature, bollywood chords, ultimate guitar, yousician, guitar lessons, acoustic guitar, electric guitar, guitar tuner, 911 tabs