Attack - 123x - Guitar Tabs

Pista 1
    
                                                                                                                                                                                                                                                                                                                                                                                                                                                                                                                                                                                                                                                                                                                                                                                                                                                                                                                                                                                                                                                                                                                                                                                              
E|----------------------------------------|--------------------------------------|
B|----------------------------------------|--------------------------------------|
G|----------------------------------------|--------------------------------------|
D|--9--------------9--------------9-------|------9--------------10-------------10|
A|--7--------------7--------------7-------|------7--------------8--------------8-|
E|-----0--0--0--0-----0--0--0--0-----0--0-|0--0-----0--0--0--0-----0--0--0--0----|

    
                                                                                                                                                                                                                                                                                                                                                                                                                                                                                                                                                                                                                                                                                                                                                                                                                                                                                                                                                                                                                                                                                                                                                                                              
E|-------------------------------------------|--------------------------------------|
B|-------------------------------------------|--------------------------------------|
G|-------------------------------------------|--------------------------------------|
D|--------------10-------------10------------|12-------------12-------------12------|
A|--------------8--------------8-------------|10-------------10-------------10------|
E|--0--0--0--0-----0--0--0--0-----0--0--0--0-|---0--0--0--0-----0--0--0--0-----0--0-|

    
                                                                                                                                                                                                                                                                                                                                                                                                                                                                                                                                                                                                                                                                                                                                                                                                                                                                                                                                                                                                                                                                                                                                                                                              
E|----------------------------------------|-----------------------------------------|
B|----------------------------------------|-----------------------------------------|
G|----------------------------------------|-----------------------------------------|
D|--------12-------------7--------------7-|------------7--------------7-------------|
A|--------10-------------5--------------5-|------------5--------------5-------------|
E|--0--0-----0--0--0--0-----0--0--0--0----|0--0--0--0-----0--0--0--0-----0--0--0--0-|

    
                                                                                                                                                                                                                                                                                                                                                                                                                                                                                                                                                                                                                                                                                                                                                                                                                                                                                                                                                                                                                                                                                                                                                                                              
E|----------------------------------------|--------------------------------------|
B|----------------------------------------|--------------------------------------|
G|----------------------------------------|--------------------------------------|
D|--9--------------9--------------9-------|------9--------------5--------------5-|
A|--7--------------7--------------7-------|------7--------------3--------------3-|
E|-----0--0--0--0-----0--0--0--0-----0--0-|0--0-----0--0--0--0-----0--0--0--0----|

    
                                                                                                                                                                                                                                                                                                                                                                                                                                                                                                                                                                                                                                                                                                                                                                                                                                                                                                                                                                                                                                                                                                                                                                                              
E|-------------------------------------------|--------------------------------------|
B|-------------------------------------------|--------------------------------------|
G|-------------------------------------------|--------------------------------------|
D|--------------5--------------5-------------|7--------------7--------------7-------|
A|--------------3--------------3-------------|5--------------5--------------5-------|
E|--0--0--0--0-----0--0--0--0-----0--0--0--0-|---0--0--0--0-----0--0--0--0-----0--0-|

    
                                                                                                                                                                                                                                                                                                                                                                                                                                                                                                                                                                                                 
E|----------------------------------------|
B|----------------------------------------|
G|----------------------------------------|
D|--------7--------------7--------------7-|
A|--------5--------------5--------------5-|
E|--0--0-----0--0--0--0-----0--0--0--0----|

    
                                                                                                                                                                                                                                                                                                                                                                                                                                                                                                                                                                                                                                                                                                                                                                                                                                                                                                                                                                                                                                                                                                                                                                                              
E|-------------------------------------------|-----------------------|
B|-------------------------------------------|-----------------------|
G|-------------------------------------------|-----------------------|
D|--------------7--------------7-------------|-----------------------|
A|--------------5--------------5-------------|6--6-----6--7--6-----6-|
E|--0--0--0--0-----0--0--0--0-----0--0--0--0-|4--4-----4--5--4-----4-|

    
                                                                                                                                                                                                                                                                                                                                                                                                                                                                                                                                                                                                                                                                                                                                                                                                                                                                                                                                                                                                                                                                                                                                                                                              
E|-------------------------|-----------------------|
B|-------------------------|-----------------------|
G|-------------------------|-----------------------|
D|--------------7--9-----7-|-----------------------|
A|--7--6-----6--5--7-----5-|6--6-----6--7--6-----6-|
E|--5--4-----4-------------|4--4-----4--5--4-----4-|

    
                                                                                                                                                                                                                                                                                                                                                                                                                                                                                                                                                                                                                                                                                                                                                                                                                                                                                                                                                                                                                                                                                                                                                                                              
E|----------------------------------|-----------------------|
B|----------------------------------|-----------------------|
G|----------------------------------|-----------------------|
D|--9--------------------7-----9----|-----------------------|
A|--7--7--7--7--7--7--7--5-----7----|6--6-----6--7--6-----6-|
E|----------------------------------|4--4-----4--5--4-----4-|

    
                                                                                                                                                                                                                                                                                                                                                                                                                                                                                                                                                                                                                                                                                                                                                                                                                                                                                                                                                                                                                                                                                                                                                                                              
E|-------------------------|-----------------------|
B|-------------------------|-----------------------|
G|-------------------------|-----------------------|
D|--------------7--9-----7-|-----------------------|
A|--7--6-----6--5--7-----5-|6--6-----6--7--6-----6-|
E|--5--4-----4-------------|4--4-----4--5--4-----4-|

    
                                                                                                                                                                                                                                                                                                                                                                                                                                                                                                                                                                                                 
E|----------------------------------|
B|----------------------------------|
G|----------------------------------|
D|--9--------------------7-----9----|
A|--7--7--7--7--7--7--7--5-----7----|
E|----------------------------------|

    
                                                                                                                                                                                                                                                                                                                                                                                                                                                                                                                                                                                                                                                                                                                                                                                                                                                                                                                                                                                                                                                                                                                                                                                              
E|-------------------------|-----------------------|
B|-------------------------|-----------------------|
G|-------------------------|-----------------------|
D|-------------------------|------------7--9-----7-|
A|--6--6-----6--7--6-----6-|7--6-----6--5--7-----5-|
E|--4--4-----4--5--4-----4-|5--4-----4-------------|

    
                                                                                                                                                                                                                                                                                                                                                                                                                                                                                                                                                                                                 
E|-------------------------|
B|-------------------------|
G|-------------------------|
D|-------------------------|
A|--6--6-----6--7--6-----6-|
E|--4--4-----4--5--4-----4-|

    
                                                                                                                                                                                                                                                                                                                                                                                                                                                                                                                                                                                                 
E|----------------------------------|
B|----------------------------------|
G|----------------------------------|
D|--9--------------------7-----9----|
A|--7--7--7--7--7--7--7--5-----7----|
E|----------------------------------|

    
                                                                                                                                                                                                                                                                                                                                                                                                                                                                                                                                                                                                                                                                                                                                                                                                                                                                                                                                                                                                                                                                                                                                                                                              
E|-------------------------------------------------|-----------------------------------------------|
B|-------------------------------------------------|-----------------------------------------------|
G|-------------------------------------------------|-----------------------------------------------|
D|-------------------------------------------------|-----------------------------------------------|
A|--7--7--7--7--7--7--7--7--7--7--7--7--7--7--7--7-|-----------------------------------------------|
E|-------------------------------------------------|10-10-10-10-10-10-10-10-10-10-10-10-10-10-10-10|

    
                                                                                                                                                                                                                                                                                                                                                                                                                                                                                                                                                                                                 
E|-------------------------------------------------|
B|-------------------------------------------------|
G|-------------------------------------------------|
D|-------------------------------------------------|
A|--10-10-10-10-10-10-10-10-10-10-10-10-10-10-10-10|
E|-------------------------------------------------|

    
                                                                                                                                                                                                                                                                                                                                                                                                                                                                                                                                                                                                 
E|-------------------------------------------------|
B|-------------------------------------------------|
G|-------------------------------------------------|
D|-------------------------------------------------|
A|-------------------------------------------------|
E|--7--7--7--7--7--7--7--7--7--7--7--7--7--7--7--7-|

    
                                                                                                                                                                                                                                                                                                                                                                                                                                                                                                                                                                                                                                                                                                                                                                                                                                                                                                                                                                                                                                                                                                                                                                                              
E|-------------------------|-----------------------|
B|-------------------------|-----------------------|
G|-------------------------|-----------------------|
D|-------------------------|------------7--9-----7-|
A|--6--6-----6--7--6-----6-|7--6-----6--5--7-----5-|
E|--4--4-----4--5--4-----4-|5--4-----4-------------|

    
                                                                                                                                                                                                                                                                                                                                                                                                                                                                                                                                                                                                 
E|-------------------------|
B|-------------------------|
G|-------------------------|
D|-------------------------|
A|--6--6-----6--7--6-----6-|
E|--4--4-----4--5--4-----4-|

    
                                                                                                                                                                                                                                                                                                                                                                                                                                                                                                                                                                                                 
E|----------------------------------|
B|----------------------------------|
G|----------------------------------|
D|--9--------------------7-----9----|
A|--7--7--7--7--7--7--7--5-----7----|
E|----------------------------------|

    
                                                                                                                                                                                                                                                                                                                                                                                                                                                                                                                                                                                                                                                                                                                                                                                                                                                                                                                                                                                                                                                                                                                                                                                              
E|-------------------------------------------------|-----------------------------------------------|
B|-------------------------------------------------|-----------------------------------------------|
G|-------------------------------------------------|-----------------------------------------------|
D|-------------------------------------------------|-----------------------------------------------|
A|--7--7--7--7--7--7--7--7--7--7--7--7--7--7--7--7-|-----------------------------------------------|
E|-------------------------------------------------|10-10-10-10-10-10-10-10-10-10-10-10-10-10-10-10|

    
                                                                                                                                                                                                                                                                                                                                                                                                                                                                                                                                                                                                 
E|-------------------------------------------------|
B|-------------------------------------------------|
G|-------------------------------------------------|
D|-------------------------------------------------|
A|--10-10-10-10-10-10-10-10-10-10-10-10-10-10-10-10|
E|-------------------------------------------------|

    
                                                                                                                                                                                                                                                                                                                                                                                                                                                                                                                                                                                                 
E|-------------------------------------------------|
B|-------------------------------------------------|
G|-------------------------------------------------|
D|-------------------------------------------------|
A|-------------------------------------------------|
E|--7--7--7--7--7--7--7--7--7--7--7--7--7--7--7--7-|

    
                                                                                                                                                                                                                                                                                                                                                                                                                                                                                                                                                                                                                                                                                                                                                                                                                                                                                                                                                                                                                                                                                                                                                                                              
E|----------------------------------------------|-----------------------------------------|
B|----------------------------------------------|-----------------------------------------|
G|----------------------------------------------|-----------------------------------------|
D|--9-------------------------------------------|7--------------------7-------------------|
A|--7-------------------------------------------|5--------------------5-------------------|
E|-----0--0--0--0--0--0--0--0--0--0--0--0--0--0-|---0--0--0--0--0--0-----0--0--0--0--0--0-|

    
                                                                                                                                                                                                                                                                                                                                                                                                                                                                                                                                                                                                 
E|-------------------------|
B|-------------------------|
G|-------------------------|
D|-------------------------|
A|--6--6-----6--7--6-----6-|
E|--4--4-----4--5--4-----4-|

    
                                                                                                                                                                                                                                                                                                                                                                                                                                                                                                                                                                                                 
E|-------------------------|
B|-------------------------|
G|-------------------------|
D|-------------------------|
A|--7--6-----6--7--6-------|
E|--5--4-----4--5--4-------|

    
                                                                                                                                                                                                                                                                                                                                                                                                                                                                                                                                                                                                                                                                                                                                                                                                                                                                                                                                                                                                                                                                                                                                                                                              
E|-------------------------------------------------|-----------------------------------------------|
B|-------------------------------------------------|-----------------------------------------------|
G|-------------------------------------------------|-----------------------------------------------|
D|-------------------------------------------------|-----------------------------------------------|
A|--7--7--7--7--7--7--7--7--7--7--7--7--7--7--7--7-|-----------------------------------------------|
E|-------------------------------------------------|10-10-10-10-10-10-10-10-10-10-10-10-10-10-10-10|

    
                                                                                                                                                                                                                                                                                                                                                                                                                                                                                                                                                                                                 
E|-------------------------------------------------|
B|-------------------------------------------------|
G|-------------------------------------------------|
D|-------------------------------------------------|
A|--10-10-10-10-10-10-10-10-10-10-10-10-10-10-10-10|
E|-------------------------------------------------|

    
                                                                                                                                                                                                                                                                                                                                                                                                                                                                                                                                                                                                 
E|-------------------------------------------------|
B|-------------------------------------------------|
G|-------------------------------------------------|
D|-------------------------------------------------|
A|-------------------------------------------------|
E|--7--7--7--7--7--7--7--7--7--7--7--7--7--7--7--7-|
tabs and chords, guitar tabs, music transcription, music technology, deep learning, music information retrieval, transcribe into tabs & chords, chordify, music renditions, songsterr, reverbnation, tabulature, bollywood chords, ultimate guitar, yousician, guitar lessons, acoustic guitar, electric guitar, guitar tuner, 911 tabs