Guitar Tabs for At Your Name (key A)

(/) Slide Up  (\) Slide Down  (h) Hammer On  (p) Pull Off  (b) Bend (r) Release (v) Vibrato (x) Muted

Tabs for Song : At Your Name (key A)

Verse:
E|-----2-----2-----2--2-----
B|--2--3--2--3-----2--3-----
G|--2--2--2--2--1--2--2--1--
D|--2-----2-----2--4-----2--
A|--------------2--4-----2--
E|-----------------2--------

Chorus:
E|--5--------5------------------------9h---------
B|--5--------5------------------------9h10-------
G|--5-----7--5-----6------------------9h---9-----
D|-----7--------7-----7--7--9--9--11----------11-
A|-----------------------------------------------
E|-----------------------------------------------

E|--5--------5------------------------9h------------------------5--------------
B|--5--------5------------------------9h10----------------------5--------------
G|--5-----7--5-----6------------------9h------------------------5-----7-----6--
D|-----7--------7-----7--7--9--9--11-------6--7--7-----------4-----7-----7-----
A|-----------------------------------------------------2--4--------------------
E|-----------------------------------------------------------------------------

E|--14----------------------12----16-17-17-
B|--14-15----14-14-12-12\14----14----------
G|--14-------------------------------------
D|--------16-------------------------------
A|-----------------------------------------
E|-----------------------------------------

Lick:
E|-----9-----7--9-----
B|--10----10-------7--
G|--------------------
D|--------------------
A|--------------------
E|--------------------

Chorus:
E|--------------------9--------10-------12----16-
B|-----14-12-------10----------10-------12-14----
G|------------9/11--------9/11----11/13----------
D|--14-------------------------------------------
A|-----------------------------------------------
E|-----------------------------------------------

Paste any tab in acousterr's tab maker and we'll play it !!!
Now supports capo and sound effects for vibrato/pull-off/hammer/bends/mutes etc !!! Checkout help section
tabs and chords, guitar tabs, music transcription, music technology, deep learning, music information retrieval, transcribe into tabs & chords, chordify, music renditions, songsterr, reverbnation, tabulature, bollywood chords, ultimate guitar, yousician, guitar lessons, acoustic guitar, electric guitar, guitar tuner, 911 tabs