Guitar Tabs for Asd

(/) Slide Up  (\) Slide Down  (h) Hammer On  (p) Pull Off  (b) Bend (r) Release (v) Vibrato

Tabs for Song : 

Song lyrics here

E|--------------------------------------------------------------------------
B|--13----12----------13-12----------------12-10-------------12-10-------12/
G|-----------14-12-------------14-12-------------12-9-----------------12----
D|-----------------14----------------14-10-------------9--10----------------
A|--------------------------------------------------------------------------
E|--------------------------------------------------------------------------


Song lyrics here
E|--
B|--
G|--
D|--
A|--
E|--

Add more lines by placing cursor below and adding notes
E|--------------------------------------------------------------------------------------------------
B|--15-13-12-10----13-12-10----------12-10----------------12-10----------13----12----------13-12----
G|--------------10----------12-10-------------12-10----------------12-------------14-12-------------
D|--------------------------------12----------------11-12-------------------------------14----------
A|--------------------------------------------------------------------------------------------------
E|--------------------------------------------------------------------------------------------------

tabs and chords, guitar tabs, music transcription, music technology, deep learning, music information retrieval, transcribe into tabs & chords, chordify, music renditions, songsterr, reverbnation, tabulature, bollywood chords, ultimate guitar, yousician, guitar lessons, acoustic guitar, electric guitar, guitar tuner, 911 tabs