Guitar Tabs for Ascend Dooo

(/) Slide Up  (\) Slide Down  (h) Hammer On  (p) Pull Off  (b) Bend (r) Release (v) Vibrato (x) Muted

Tabs & Chords
BPM : 110.0
Check Track 2 for Chord Positions 

    G#                               A#                         Cm                C     D#    
E|-----8-----------------8-----------8--------------------------------------------------------
B|--11----8--8--------------8--8--------8--------------8--8-----11----11----8--11-------------
G|-----------------10-------------------------10-8-----------------------10-------------8--10-
D|--------------------------------------------------------------------------------12----------
A|--------------------------------------------------------------------------------------------
E|--------------------------------------------------------------------------------------------

                Gm                               G#                               A#          
E|-----------------------------------------------------------------------8--------10----------
B|--------------------------------------------8--9--11----8-----------11----8--------11-9--9--
G|-----------------------8--8--8--8--10-10-10-------------------10-8--------------------------
D|--10-11-10----10-10-12----------------------------------------------------------------------
A|--------------------------------------------------------------------------------------------
E|--------------------------------------------------------------------------------------------

                               Cm                               G                             
E|--------------------------------------------------------------------------------------------
B|--8--------8-----------------------------------------------------------8--------------------
G|-----8-----------------0--------------------------0-----------------8-----10-8--8-----------
D|--------12----12-10----------0--------0--------------------------12-------------------12-12-
A|--------------------------------------------------------8-----11----------------------------
E|--------------------------11-------8-----11-11----------------------------------------------

          G#                               A#                                                 
E|-----------------------------------------------------------------8--8-----8--10-------8--11-
B|-----------9--------------8--------------------8--9--11-11----9--------8--------8--11-------
G|--8-----------10-------8-----10-10-8--------8--------------10-------------------------------
D|--------0--------10----------------------12-------------------------------------------------
A|--------------------------------------------------------------------------------------------
E|--------------------------------------------------------------------------------------------

Guitar Tabs for Ascend Dooo






    G#                               A#                         Cm                C     D#    
E|--4--------------------------------1--------------------------3-----------------0-----6-----
B|--4--------------------------------3--------------------------4-----------------1-----8-----
G|--5--------------------------------3--------------------------5-----------------0-----8-----
D|--6--------------------------------3--------------------------5-----------------2-----8-----
A|--6--------------------------------1--------------------------3-----------------3-----6-----
E|--4-----------------------------------------------------------------------------------------

                Gm                               G#                               A#          
E|--------------3--------------------------------4--------------------------------1-----------
B|--------------3--------------------------------4--------------------------------3-----------
G|--------------3--------------------------------5--------------------------------3-----------
D|--------------5--------------------------------6--------------------------------3-----------
A|--------------5--------------------------------6--------------------------------1-----------
E|--------------3--------------------------------4--------------------------------------------

                               Cm                               G                             
E|-----------------------------3--------------------------------3-----------------------------
B|-----------------------------4--------------------------------3-----------------------------
G|-----------------------------5--------------------------------4-----------------------------
D|-----------------------------5--------------------------------5-----------------------------
A|-----------------------------3--------------------------------5-----------------------------
E|--------------------------------------------------------------3-----------------------------

          G#                               A#                                                 
E|--------4--------------------------------1--------------------------------------------------
B|--------4--------------------------------3--------------------------------------------------
G|--------5--------------------------------3--------------------------------------------------
D|--------6--------------------------------3--------------------------------------------------
A|--------6--------------------------------1--------------------------------------------------
E|--------4-----------------------------------------------------------------------------------

tabs and chords, guitar tabs, music transcription, music technology, deep learning, music information retrieval, transcribe into tabs & chords, chordify, music renditions, songsterr, reverbnation, tabulature, bollywood chords, ultimate guitar, yousician, guitar lessons, acoustic guitar, electric guitar, guitar tuner, 911 tabs