Bass Tabs for Art Is Dead - Lemonsweet

(/) Slide Up  (\) Slide Down  (h) Hammer On  (p) Pull Off  (b) Bend (r) Release (v) Vibrato (x) Muted

Tabs for Song : Art is Dead

Verse
G|--------2-----------5-----------2-----------5-----
D|-----2-----------4-----------2-----------4--------
A|--0--------3--5--------3--0--------3--5--------3--
E|--------------------------------------------------

G|--------2-----------5-----------------2-----------5--10-9-----7--
D|-----2-----------4-----------------2-----------4-----------10----
A|--0--------3--5--------------3--0--------3--5--------------------
E|-----------------------3--5--------------------------------------
Pre-Chorus
G|--------
D|--------
A|--8--7--
E|--------

Chorus
G|--------------------------------------------7---9/11----------------------
D|---------------------------------------7/9--------------------------------
A|--------7-----5--3--3--------3--5--5-----------------------7--5--3--------
E|--5--5-----8-----------3--5--------------------------0--0-----------5--3--

Verse
Pre-Chorus
Chorus

Bridge:
1. 3x
G|-----------------------------------------
D|--------------------------------3--2-----
A|-----5--5--3--5--3-----------1--------3--
E|--------------------3--3--3--------------

2.
G|--------3--------5-----------7-----------7--------3--------5-----------7-----------7-----
D|-----------------------------------------------------------------------------------------
A|-----1-----1--3-----3--5--5-----5--5--5-----5--1-----1--3-----3--5--5-----5--5--5-----5--
E|-----------------------------------------------------------------------------------------

G|--------9--------9--------11-------11-------12----12----------------------------------
D|--------------------------------------------------------------------------------------
A|-----7-----7--7-----9--9-----9--9-----9--10----10----10-12-12-12-12-12-12-12-12-12\0--
E|--------------------------------------------------------------------------------------

Letzter Chorus:

G|--------------------------------------------9--11/13----------------------
D|---------------------------------------9/11-------------------------------
A|-----------9-----7--5--------5--7--7-----------------------9--7--5--------
E|-----7--7-----10-------5--7--------------------------2--2-----------7--5--


tabs and chords, guitar tabs, music transcription, music technology, deep learning, music information retrieval, transcribe into tabs & chords, chordify, music renditions, songsterr, reverbnation, tabulature, bollywood chords, ultimate guitar, yousician, guitar lessons, acoustic guitar, electric guitar, guitar tuner, 911 tabs