Arriettys Song - Sungh Jung - Guitar Tabs

?«?? 1
    
                                                                                                                                                                                                                                                                                                                                                                                                                                                                                                                                                                                                                                                                                                                                                                                                                                                                                                                                                                                                                                                                                                                                                                                              
E|-------------------------|-----------------------|
B|--5--------------5-------|5--------5-----7-----7-|
G|-----------4-----------4-|-----------------------|
D|--------6-----------6----|------6----------------|
A|-------------------------|-----------------------|
E|--0-----------0----------|0-----------0-----0----|

    
                                                                                                                                                                                                                                                                                                                                                                                                                                                                                                                                                                                                                                                                                                                                                                                                                                                                                                                                                                                                                                                                                                                                                                                              
E|-------------------------|-----------------------|
B|--------4----------------|4--------4-----5-------|
G|--------5--------5-----5-|-----------------------|
D|--------------------4----|------4-----------4----|
A|-------------------------|-----------------------|
E|--4-----------4----------|4-----------4----------|

    
                                                                                                                                                                                                                                                                                                                                                                                                                                                                                                                                                                                                                                                                                                                                                                                                                                                                                                                                                                                                                                                                                                                                                                                              
E|-------------------------|-----------------------|
B|-------------------------|---------------0-----2-|
G|--6--------------6-------|-4p6-----6--------4----|
D|--------6--6--------6----|------6----------------|
A|--4-----------4--------4-|-4p---------4----------|
E|-------------------------|-----------------------|

    
                                                                                                                                                                                                                                                                                                                                                                                                                                                                                                                                                                                                                                                                                                                                                                                                                                                                                                                                                                                                                                                                                                                                                                                              
E|-------------------------|-----------------------|
B|--2----------------------|-----------------------|
G|--------4-----4----------|4----------------------|
D|--------4-----4-----4----|------4-----4-----6----|
A|--2-----------------2----|2----------------------|
E|-------------------------|-----------------------|

    
                                                                                                                                                                                                                                                                                                                                                                                                                                                                                                                                                                                                                                                                                                                                                                                                                                                                                                                                                                                                                                                                                                                                                                                              
E|-------------------------|-----------------------|
B|--------5--------5-------|5--------5-----7-----7-|
G|--------4--------------4-|-----------------------|
D|--------------------6----|------6----------------|
A|-------------------------|-----------------------|
E|--0-----------0----------|0-----------0-----0----|

    
                                                                                                                                                                                                                                                                                                                                                                                                                                                                                                                                                                                                                                                                                                                                                                                                                                                                                                                                                                                                                                                                                                                                                                                              
E|-------------------------|-----------------------|
B|--------4----------------|4--------4-----5-------|
G|--------5--------5-----5-|-----------------------|
D|--------------------4----|------4-----------4----|
A|-------------------------|-----------------------|
E|--4-----------4----------|4-----------4----------|

    
                                                                                                                                                                                                                                                                                                                                                                                                                                                                                                                                                                                                                                                                                                                                                                                                                                                                                                                                                                                                                                                                                                                                                                                              
E|-------------------------|-----------------------|
B|-------------------------|---------------0-----2-|
G|--6--------------6-------|-4p6-----6--------4----|
D|--------6--6--------6----|------6----------------|
A|--4-----------4--------4-|-4p---------4----------|
E|-------------------------|-----------------------|

    
                                                                                                                                                                                                                                                                                                                                                                                                                                                                                                                                                                                                                                                                                                                                                                                                                                                                                                                                                                                                                                                                                                                                                                                              
E|-----------------------2-|------2-----2----------|
B|--------2-----2----------|------------------4----|
G|--------4--------4-------|------------4----------|
D|--------------------4----|------4-----------4----|
A|--2----------------------|2----------------------|
E|-------------------------|-----------------------|

    
                                                                                                                                                                                                                                                                                                                                                                                                                                                                                                                                                                                                                                                                                                                                                                                                                                                                                                                                                                                                                                                                                                                                                                                              
E|--------------7-----7----|-----------------------|
B|--5--------------------7-|------7-----7-----5----|
G|-----------4-------------|---4-------------------|
D|--------6-----------(6)--|------6-----------6----|
A|-------------------------|-----------------------|
E|--0-----------(0)--------|0-----------0----------|

    
                                                                                                                                                                                                                                                                                                                                                                                                                                                                                                                                                                                                                                                                                                                                                                                                                                                                                                                                                                                                                                                                                                                                                                                              
E|--------------7----------|-----------------------|
B|--------5--------------7-|------7-----7-----5----|
G|--------4----------------|---5-------------------|
D|--------------------6----|------6-----------6----|
A|-------------------------|-----------------------|
E|--4-----------(4)--------|4-----------4----------|

    
                                                                                                                                                                                                                                                                                                                                                                                                                                                                                                                                                                                                                                                                                                                                                                                                                                                                                                                                                                                                                                                                                                                                                                                              
E|-------------------------|-----------------------|
B|--------------5--------5-|------------5--------5-|
G|-----------6-----6-------|---------6-----6-------|
D|--------6-----------6----|------6-----------6----|
A|--4-----------4----------|4-----------4----------|
E|-------------------------|-----------------------|

    
                                                                                                                                                                                                                                                                                                                                                                                                                                                                                                                                                                                                                                                                                                                                                                                                                                                                                                                                                                                                                                                                                                                                                                                              
E|-----------------------4-|---------------2-------|
B|--------5-----5----------|---5-----5-----------0-|
G|--------4----------------|-----------------------|
D|--------------4----------|------4-----------4----|
A|--2-----------------2----|2-----------2----------|
E|-------------------------|-----------------------|

    
                                                                                                                                                                                                                                                                                                                                                                                                                                                                                                                                                                                                                                                                                                                                                                                                                                                                                                                                                                                                                                                                                                                                                                                              
E|--------------7-----7----|-----------------------|
B|--------5--------------7-|------7-----7-----5----|
G|--------4----------------|---4-------------------|
D|--------------------(6)--|------6-----------6----|
A|-------------------------|-----------------------|
E|--0-----------(0)--------|0-----------0----------|

    
                                                                                                                                                                                                                                                                                                                                                                                                                                                                                                                                                                                                                                                                                                                                                                                                                                                                                                                                                                                                                                                                                                                                                                                              
E|--------------7----------|-----------------------|
B|--------5--------------7-|------7-----7-----5----|
G|--------4----------------|---5-------------------|
D|--------------------6----|------6-----------6----|
A|-------------------------|-----------------------|
E|--4-----------(4)--------|4-----------4----------|

    
                                                                                                                                                                                                                                                                                                                                                                                                                                                                                                                                                                                                                                                                                                                                                                                                                                                                                                                                                                                                                                                                                                                                                                                              
E|-------------------------|------4--------0-------|
B|--------------5---------5p---7-------------------|
G|-----------6-----6-------|---------------------x-|
D|--------6-----------6----|6-----------------x----|
A|--4-----------4----------|------------4----------|
E|-------------------------|-----------------------|

    
                                                                                                                                                                                                                                                                                                                                                                                                                                                                                                                                                                                                                                                                                                                                                                                                                                                                                                                                                                                                                                                                                                                                                                                              
E|--5-----4-----4-----0----|0--------------4-------|
B|--------------0----------|5-----5---5/7----------|
G|--4-----------4----------|4----------------------|
D|--(4)--------------------|-----------------------|
A|--2----------------------|x----------------------|
E|-------------------------|-----------------------|

    
                                                                                                                                                                                                                                                                                                                                                                                                                                                                                                                                                                                                                                                                                                                                                                                                                                                                                                                                                                                                                                                                                                                                                                                              
E|--------4-----4--4-------|4-----4-----4--------4-|
B|--------7-----7--7-------|7-----7-----7-----7----|
G|--------4-----4--4-------|4-----4-----4----------|
D|--------------x-----6----|x-----------x----------|
A|-------------------------|-----------------------|
E|--0----------------------|-----------------------|

    
                                                                                                                                                                                                                                                                                                                                                                                                                                                                                                                                                                                                                                                                                                                                                                                                                                                                                                                                                                                                                                                                                                                                                                                              
E|--------4-----4--4-------|4-----------------4----|
B|--------7-----7--7-------|7-----7-----7--------7-|
G|--------5-----5--5-------|5-----------5----------|
D|--------------x-----6----|x-----------x----------|
A|-------------------------|-----------------------|
E|--4----------------------|-----------------------|

    
                                                                                                                                                                                                                                                                                                                                                                                                                                                                                                                                                                                                                                                                                                                                                                                                                                                                                                                                                                                                                                                                                                                                                                                              
E|-------------------------|------------(4)--------|
B|--------5-----5--------5-|------5-----5----------|
G|--------6-----6-----6----|------6-----6-----6----|
D|--------------x-----6----|------------x-----6----|
A|--4----------------------|4----------------------|
E|-------------------------|-----------------------|

    
                                                                                                                                                                                                                                                                                                                                                                                                                                                                                                                                                                                                                                                                                                                                                                                                                                                                                                                                                                                                                                                                                                                                                                                              
E|--------2-----2-----2--4-|------4-----4--------4-|
B|--------4-----4----------|------4-----4-----7----|
G|-------------------------|-----------------------|
D|--------------x----------|---4--------x----------|
A|--2----------------------|2----------------------|
E|-------------------------|-----------------------|

    
                                                                                                                                                                                                                                                                                                                                                                                                                                                                                                                                                                                                                                                                                                                                                                                                                                                                                                                                                                                                                                                                                                                                                                                              
E|--------4-----4--4-------|4-----4-----4--------4-|
B|--------7-----7--7-------|7-----7-----7-----7----|
G|--------4-----4--4-------|4-----4-----4----------|
D|--------------x-----6----|x-----------x----------|
A|-------------------------|-----------------------|
E|--0----------------------|-----------------------|

    
                                                                                                                                                                                                                                                                                                                                                                                                                                                                                                                                                                                                                                                                                                                                                                                                                                                                                                                                                                                                                                                                                                                                                                                              
E|--------4-----4--4-------|4-----------------4----|
B|--------7-----7--7-------|7-----7-----7--------7-|
G|--------5-----5--5-------|5-----------5----------|
D|--------------x-----6----|x-----------x----------|
A|-------------------------|-----------------------|
E|--4----------------------|-----------------------|

    
                                                                                                                                                                                                                                                                                                                                                                                                                                                                                                                                                                                                                                                                                                                                                                                                                                                                                                                                                                                                                                                                                                                                                                                              
E|-------------------------|------------(4)--------|
B|--------5-----5--------5-|------5-----5----------|
G|--------6-----6-----6----|------6-----6-----6----|
D|--------------x-----6----|------------x-----6----|
A|--4----------------------|4----------------------|
E|-------------------------|-----------------------|

    
                                                                                                                                                                                                                                                                                                                                                                                                                                                                                                                                                                                                                                                                                                                                                                                                                                                                                                                                                                                                                                                                                                                                                                                              
E|-------------------------|-----------------------|
B|-------------------------|12p14-12---------------|
G|--------8-----8-----8----|12p------14/11-9-------|
D|-------------------------|------------------11/9-|
A|-------------------------|-----------------------|
E|--7----------------------|-----------------------|

    
                                                                                                                                                                                                                                                                                                                                                                                                                                                                                                                                                                                                                                                                                                                                                                                                                                                                                                                                                                                                                                                                                                                                                                                              
E|-------------------------|------------4-----4--4-|
B|--5-----5-----5--------5-|------5-----5-----5----|
G|--4-----4-----4-----x--4-|------4-----4-----4----|
D|--6-----6-----6-----x--6-|---6--------x----------|
A|--------------x----------|-----------------------|
E|--0----------------------|0----------------------|

    
                                                                                                                                                                                                                                                                                                                                                                                                                                                                                                                                                                                                                                                                                                                                                                                                                                                                                                                                                                                                                                                                                                                                                                                              
E|-------------------------|------------------4--4-|
B|--------7-----7--7-------|7-----7-----7-----7----|
G|--------5-----5--5-------|5-----5-----5-----5----|
D|--------------x--------6-|------------x----------|
A|-------------------------|-----------------------|
E|--4-----------------4----|4----------------------|

    
                                                                                                                                                                                                                                                                                                                                                                                                                                                                                                                                                                                                                                                                                                                                                                                                                                                                                                                                                                                                                                                                                                                                                                                              
E|--------------(4)--------|------------7-----7--7-|
B|--------5-----5--------5-|------5-----5----------|
G|--------6-----6-----x----|------6-----6----------|
D|-----6--------x-----x----|---6--------x----------|
A|--4----------------------|4----------------------|
E|-------------------------|-----------------------|

    
                                                                                                                                                                                                                                                                                                                                                                                                                                                                                                                                                                                                                                                                                                                                                                                                                                                                                                                                                                                                                                                                                                                                                                                              
E|-------------------------|---------------------0-|
B|--------7-----7--7-----x-|------------0----------|
G|--------------8--8-------|8-----8-----8-----8----|
D|--------------x-----x----|------------x----------|
A|-------------------------|-----------------------|
E|--7----------------------|-----------------------|

    
                                                                                                                                                                                                                                                                                                                                                                                                                                                                                                                                                                                                                                                                                                                                                                                                                                                                                                                                                                                                                                                                                                                                                                                              
E|-------------------------|------------4-----4--4-|
B|--------5-----5--------5-|------5-----5-----5----|
G|--------4-----4-----x--4-|------4-----4-----4----|
D|-----6--------x-----x--6-|---6--------x----------|
A|-------------------------|-----------------------|
E|--0----------------------|0----------------------|

    
                                                                                                                                                                                                                                                                                                                                                                                                                                                                                                                                                                                                                                                                                                                                                                                                                                                                                                                                                                                                                                                                                                                                                                                              
E|-------------------------|------------------4--4-|
B|--------7-----7--7-------|7-----7-----7-----7----|
G|--------5-----5--5-------|5-----5-----5-----5----|
D|--------------x--------6-|------------x----------|
A|-------------------------|-----------------------|
E|--4-----------------4----|4----------------------|
tabs and chords, guitar tabs, music transcription, music technology, deep learning, music information retrieval, transcribe into tabs & chords, chordify, music renditions, songsterr, reverbnation, tabulature, bollywood chords, ultimate guitar, yousician, guitar lessons, acoustic guitar, electric guitar, guitar tuner, 911 tabs