Arma-god-damn-mother-fucking-geddon - Marilyn Manson - Guitar Tabs

Twiggy Ramirez 1
    
                                                                                                                                                                                                                                                                                                                                                                                                                                                                                                                                                                                                 
E|-------------------------|
B|-------------------------|
G|--------------------7----|
D|--9-----------9----------|
A|--------9----------------|
E|-------------------------|

    
                                                                                                                                                                                                                                                                                                                                                                                                                                                                                                                                                                                                                                                                                                                                                                                                                                                                                                                                                                                                                                                                                                                                                                                              
E|-------------------------|-----------------------|
B|-------------------------|-----------------------|
G|--11---------------------|------------------7----|
D|-------------------------|9-----------9----------|
A|-------------------------|------9----------------|
E|-------------------------|-----------------------|

    
                                                                                                                                                                                                                                                                                                                                                                                                                                                                                                                                                                                                                                                                                                                                                                                                                                                                                                                                                                                                                                                                                                                                                                                              
E|-------------------------|-----------------------|
B|-------------------------|-----------------------|
G|--11---------------------|------------------7----|
D|-------------------------|9-----------9----------|
A|-------------------------|------9----------------|
E|-------------------------|-----------------------|

    
                                                                                                                                                                                                                                                                                                                                                                                                                                                                                                                                                                                                                                                                                                                                                                                                                                                                                                                                                                                                                                                                                                                                                                                              
E|-------------------------|-----------------------|
B|-------------------------|-----------------------|
G|--11---------------------|------------------7----|
D|-------------------------|9-----------9----------|
A|-------------------------|------9----------------|
E|-------------------------|-----------------------|

    
                                                                                                                                                                                                                                                                                                                                                                                                                                                                                                                                                                                                 
E|-------------------------|
B|-------------------------|
G|--11---------------------|
D|-------------------------|
A|-------------------------|
E|-------------------------|

    
                                                                                                                                                                                                                                                                                                                                                                                                                                                                                                                                                                                                 
E|-------------------------------|
B|-------------------------------|
G|-------------------------------|
D|--x-----x-----x-----x--x-----x-|
A|--x-----x-----x-----x--x-----x-|
E|--x-----x-----x-----x--x-----x-|

    
                                                                                                                                                                                                                                                                                                                                                                                                                                                                                                                                                                                                                                                                                                                                                                                                                                                                                                                                                                                                                                                                                                                                                                                              
E|-------------------------------|-----------------------------|
B|-------------------------------|-----------------------------|
G|-------------------------------|-----------------------------|
D|--x-----x-----x-----x--x-----x-|x-----x-----x-----x--x-----x-|
A|--x-----x-----x-----x--x-----x-|x-----x-----x-----x--x-----x-|
E|--x-----x-----x-----x--x-----x-|x-----x-----x-----x--x-----x-|

    
                                                                                                                                                                                                                                                                                                                                                                                                                                                                                                                                                                                                                                                                                                                                                                                                                                                                                                                                                                                                                                                                                                                                                                                              
E|-------------------------------------|-----------------------------|
B|-------------------------------------|-----------------------------|
G|-------------------------------------|-----------------------------|
D|--x-----x--x-----x--x-----x--x-----x-|x-----x-----x-----x--x-----x-|
A|--x-----x--x-----x--x-----x--x-----x-|x-----x-----x-----x--x-----x-|
E|--x-----x--x-----x--x-----x--x-----x-|x-----x-----x-----x--x-----x-|

    
                                                                                                                                                                                                                                                                                                                                                                                                                                                                                                                                                                                                                                                                                                                                                                                                                                                                                                                                                                                                                                                                                                                                                                                              
E|-------------------------------|-----------------------------|
B|-------------------------------|-----------------------------|
G|-------------------------------|-----------------------------|
D|--x-----x-----x-----x--x-----x-|x-----x-----x-----x--x-----x-|
A|--x-----x-----x-----x--x-----x-|x-----x-----x-----x--x-----x-|
E|--x-----x-----x-----x--x-----x-|x-----x-----x-----x--x-----x-|

    
                                                                                                                                                                                                                                                                                                                                                                                                                                                                                                                                                                                                                                                                                                                                                                                                                                                                                                                                                                                                                                                                                                                                                                                              
E|-------------------------------------|-----------------------------------|
B|-------------------------------------|-----------------------------------|
G|-------------------------------------|-----------------------------------|
D|--x-----x--x-----x--x-----x--x-----x-|5-----5--5-----5--5-----5--5-----5-|
A|--x-----x--x-----x--x-----x--x-----x-|5-----5--5-----5--5-----5--5-----5-|
E|--x-----x--x-----x--x-----x--x-----x-|3-----3--3-----3--3-----3--3-----3-|

    
                                                                                                                                                                                                                                                                                                                                                                                                                                                                                                                                                                                                                                                                                                                                                                                                                                                                                                                                                                                                                                                                                                                                                                                              
E|-------------------------------------|-----------------------------|
B|-------------------------------------|-----------------------------|
G|-------------------------------------|-----------------------------|
D|--4-----4--4-----4--4-----4--4-----4-|-----------------------------|
A|--4-----4--4-----4--4-----4--4-----4-|9-----9-----7-----9--7-----9-|
E|--2-----2--2-----2--2-----2--2-----2-|7-----7-----5-----7--5-----7-|

    
                                                                                                                                                                                                                                                                                                                                                                                                                                                                                                                                                                                                                                                                                                                                                                                                                                                                                                                                                                                                                                                                                                                                                                                              
E|-------------------------------|-----------------------------------|
B|-------------------------------|-----------------------------------|
G|-------------------------------|-----------------------------------|
D|-------------------------------|5-----5--5-----5--5-----5--5-----5-|
A|--------9-----7-----9--7-----9-|5-----5--5-----5--5-----5--5-----5-|
E|--------7-----5-----7--5-----7-|3-----3--3-----3--3-----3--3-----3-|

    
                                                                                                                                                                                                                                                                                                                                                                                                                                                                                                                                                                                                                                                                                                                                                                                                                                                                                                                                                                                                                                                                                                                                                                                              
E|-------------------------------------|-----------------------------|
B|-------------------------------------|-----------------------------|
G|-------------------------------------|-----------------------------|
D|--4-----4--4-----4--4-----4--4-----4-|-----------------------------|
A|--4-----4--4-----4--4-----4--4-----4-|9-----9-----7-----9--7-----9-|
E|--2-----2--2-----2--2-----2--2-----2-|7-----7-----5-----7--5-----7-|

    
                                                                                                                                                                                                                                                                                                                                                                                                                                                                                                                                                                                                                                                                                                                                                                                                                                                                                                                                                                                                                                                                                                                                                                                              
E|-------------------------------|-----------------------------------|
B|-------------------------------|-----------------------------------|
G|-------------------------------|-----------------------------------|
D|-------------------------------|5-----5--5-----5--5-----5--5-----5-|
A|--------9-----7-----9--7-----9-|5-----5--5-----5--5-----5--5-----5-|
E|--------7-----5-----7--5-----7-|3-----3--3-----3--3-----3--3-----3-|

    
                                                                                                                                                                                                                                                                                                                                                                                                                                                                                                                                                                                                                                                                                                                                                                                                                                                                                                                                                                                                                                                                                                                                                                                              
E|-------------------------------------|-----------------------------------|
B|-------------------------------------|-----------------------------------|
G|-------------------------------------|-----------------------------------|
D|--4-----4--4-----4--4-----4--4-----4-|12----12-12----12-12----12-12----12|
A|--4-----4--4-----4--4-----4--4-----4-|12----12-12----12-12----12-12----12|
E|--2-----2--2-----2--2-----2--2-----2-|10----10-10----10-10----10-10----10|

    
                                                                                                                                                                                                                                                                                                                                                                                                                                                                                                                                                                                                                                                                                                                                                                                                                                                                                                                                                                                                                                                                                                                                                                                              
E|-------------------------------------|-----------------------------------|
B|-------------------------------------|-----------------------------------|
G|-------------------------------------|-----------------------------------|
D|--11----11-11----11-11----11-11----11|5-----5--5-----5--5-----5--5-----5-|
A|--11----11-11----11-11----11-11----11|5-----5--5-----5--5-----5--5-----5-|
E|--9-----9--9-----9--9-----9--9-----9-|3-----3--3-----3--3-----3--3-----3-|

    
                                                                                                                                                                                                                                                                                                                                                                                                                                                                                                                                                                                                                                                                                                                                                                                                                                                                                                                                                                                                                                                                                                                                                                                              
E|-------------------------------------|-----------------------|
B|-------------------------------------|-----------------------|
G|-------------------------------------|-----------------------|
D|--7-----7--7-----7--7-----7--7-----7-|-----------------------|
A|--7-----7--7-----7--7-----7--7-----7-|-----------------------|
E|--5-----5--5-----5--5-----5--5-----5-|------7-----------7----|

    
                                                                                                                                                                                                                                                                                                                                                                                                                                                                                                                                                                                                                                                                                                                                                                                                                                                                                                                                                                                                                                                                                                                                                                                              
E|-------------------------|-----------------------|
B|-------------------------|-----------------------|
G|-------------------------|-----------------------|
D|-------------------------|-----------------------|
A|-------------------------|-----------------------|
E|--------7-----------7----|------7-----------7----|

    
                                                                                                                                                                                                                                                                                                                                                                                                                                                                                                                                                                                                                                                                                                                                                                                                                                                                                                                                                                                                                                                                                                                                                                                              
E|-------------------------|-----------------------|
B|-------------------------|-----------------------|
G|-------------------------|-----------------------|
D|-------------------------|-----------------------|
A|-------------------------|-----------------------|
E|--------7-----------10---|------7-----------7----|

    
                                                                                                                                                                                                                                                                                                                                                                                                                                                                                                                                                                                                                                                                                                                                                                                                                                                                                                                                                                                                                                                                                                                                                                                              
E|-------------------------|-----------------------|
B|-------------------------|-----------------------|
G|-------------------------|-----------------------|
D|-------------------------|-----------------------|
A|-------------------------|-----------------------|
E|--------7-----------7----|------7-----------7----|

    
                                                                                                                                                                                                                                                                                                                                                                                                                                                                                                                                                                                                 
E|-------------------------|
B|-------------------------|
G|-------------------------|
D|-------------------------|
A|-------------------------|
E|--------7-----------10---|

    
                                                                                                                                                                                                                                                                                                                                                                                                                                                                                                                                                                                                 
E|-------------------------------|
B|-------------------------------|
G|-------------------------------|
D|--x-----x-----x-----x--x-----x-|
A|--x-----x-----x-----x--x-----x-|
E|--x-----x-----x-----x--x-----x-|

    
                                                                                                                                                                                                                                                                                                                                                                                                                                                                                                                                                                                                                                                                                                                                                                                                                                                                                                                                                                                                                                                                                                                                                                                              
E|-------------------------------|-----------------------------|
B|-------------------------------|-----------------------------|
G|-------------------------------|-----------------------------|
D|--x-----x-----x-----x--x-----x-|x-----x-----x-----x--x-----x-|
A|--x-----x-----x-----x--x-----x-|x-----x-----x-----x--x-----x-|
E|--x-----x-----x-----x--x-----x-|x-----x-----x-----x--x-----x-|

    
                                                                                                                                                                                                                                                                                                                                                                                                                                                                                                                                                                                                                                                                                                                                                                                                                                                                                                                                                                                                                                                                                                                                                                                              
E|-------------------------------------|-----------------------------|
B|-------------------------------------|-----------------------------|
G|-------------------------------------|-----------------------------|
D|--x-----x--x-----x--x-----x--x-----x-|x-----x-----x-----x--x-----x-|
A|--x-----x--x-----x--x-----x--x-----x-|x-----x-----x-----x--x-----x-|
E|--x-----x--x-----x--x-----x--x-----x-|x-----x-----x-----x--x-----x-|

About Arma-goddamn-motherfuckin-geddon : The song was released for download on May 5, 2009 . It has been remixed by the Teddybears . The song included in the game Saints Row: The Third on one of the radio stations . Metal Hammer describes "Arma-goddamn-motherfuckin-geddon" as having Heavy basslines, a stomping back-beat and a very traditionally Manson glam-chorus are the order of the day . It's this glam rock tinge that really shines through on the track, nodding to his penchant for decadent rock . It was released in 2009. It was released as part of album The High End of Low. The genre is gothic rock glam rock industrial rock. The track was release in 2009. It is related to the album(s) - The High End of Low. The track has an affiliation to the band(s) - the Teddybears.

About List of Marilyn Manson band members : The group was originally known as Marilyn Manson & the Spooky Kids . They were joined by guitarist Daisy Berkowitz (real name Scott Putesky) and bassist Olivia Newton Bundy . Marilyn Manson and Daisy Berkowitz formed Marilyn Manson & the Spooky Kids in December 1989 . After recording their first demo The Raw Boned Psalms the following month, the trio added keyboardist Zsa Zsa Speck (Perry Pandrea) before Gidget Gein (Brad Stewart) and Madonna Wayne Gacy (Stephen Bier) Gein received a notice while recovering from a heroin overdose that his services "were no longer needed" His bass parts were retained from earlier sessions for The Manson Family Album, but he was subsequently replaced by Twiggy Ramirez (Jeordie White) List of Marilyn Manson band members The group has many notable artists like Marilyn Manson,Marilyn Manson,Daisy Berkowitz,Olivia Newton Bundy,Zsa Zsa Speck.

About The High End of Low : The High End of Low is the seventh studio album by American rock band Marilyn Manson . It was released on May 20, 2009 by Interscope Records . The album's lyrics were largely inspired by his divorce from burlesque performer Dita Von Teese . Manson first began work on the album with guitarist Tim Sk├Âld . The album was produced by Manson and Twiggy (who dropped the Ramirez moniker) along with former Nine Inch Nails co-producer Chris Vrenna . The album debuted at number four on the Billboard 200 . It was their second consecutive number one on Billboard's Top Hard Rock Albums . It also peaked at number six on European Albums and within the top 20 in 18 other territories . It had a contribution from notable artists like Dita Von Teese,Evan Rachel Wood. It had an affiliation to bands - The High End of Low,Marilyn Manson. Its music is influenced by genres - glam rock industrial metal.

tabs and chords, guitar tabs, music transcription, music technology, deep learning, music information retrieval, transcribe into tabs & chords, chordify, music renditions, songsterr, reverbnation, tabulature, bollywood chords, ultimate guitar, yousician, guitar lessons, acoustic guitar, electric guitar, guitar tuner, 911 tabs