Guitar Tabs for Ariana Grande - Thank U, Next

Ariana Grande - thank u, next

CAPO -> 1st Fret

Intro

    F     E7   Am     C7
E|--1-----0-----0-----0--
B|--1-----3-----1-----1--
G|--2-----1-----2-----3--
D|--3-----2-----2-----2--
A|--3-----2-----0-----3--
E|--1-----0--------------

1st Verse

                      F                       E7
Thought I'd end up with Sean, but he wasn't a match
E|--------------------1-----------------------0--
B|--------------------1-----------------------3--
G|--------------------2-----------------------1--
D|--------------------3-----------------------2--
A|--------------------3-----------------------2--
E|--------------------1-----------------------0--

                        Am                      C7
Wrote some songs about Ricky, now I listen and laugh
E|-----------------------0-----------------------0--
B|-----------------------1-----------------------1--
G|-----------------------2-----------------------3--
D|-----------------------2-----------------------2--
A|-----------------------0-----------------------3--
E|--------------------------------------------------

                      F                       E7
Even almost got married, and for Pete, I'm so thankful
E|--------------------1-----------------------0--
B|--------------------1-----------------------3--
G|--------------------2-----------------------1--
D|--------------------3-----------------------2--
A|--------------------3-----------------------2--
E|--------------------1-----------------------0--

                        Am                      C7
Wish I could say, "Thank you" to Malcolm, cause he was an angel 
E|-----------------------0-----------------------0--
B|-----------------------1-----------------------1--
G|-----------------------2-----------------------3--
D|-----------------------2-----------------------2--
A|-----------------------0-----------------------3--
E|--------------------------------------------------

1st Pre-Chorus
               F                  E7
One taught me love, One taught me patience 
E|--------------1-----------------0--
B|--------------1-----------------3--
G|--------------2-----------------1--
D|--------------3-----------------2--
A|--------------3-----------------2--
E|--------------1-----------------0--

                  Am                C7
And one taught me pain, now I'm so amazing
E|-----------------0-----------------0--
B|-----------------1-----------------1--
G|-----------------2-----------------3--
D|-----------------2-----------------2--
A|-----------------0-----------------3--
E|--------------------------------------

                    F                         E7
I've loved and I've lost, but that's not what I see
E|-----------------1--------------------------0--
B|-----------------1--------------------------3--
G|-----------------2--------------------------1--
D|-----------------3--------------------------2--
A|-----------------3--------------------------2--
E|-----------------1--------------------------0--

                Am                      C7
So, look what I got, look what you taught me
E|--------------0-----------------------0--
B|--------------1-----------------------1--
G|--------------2-----------------------3--
D|--------------2-----------------------2--
A|--------------0-----------------------3--
E|-----------------------------------------

                 F                      
And for that I say
E|--------------1--------
B|--------------1--------
G|--------------2--------
D|--------------3--------
A|--------------3--------
E|--------------1--------

Chorus

                  E7                       Am
Thank you, next (next) , thank you, next (next) 
E|-----------------0-----------------------0--
B|-----------------3-----------------------1--
G|-----------------1-----------------------2--
D|-----------------2-----------------------2--
A|-----------------2-----------------------0--
E|-----------------0--------------------------
                 
                 C7                              F
Thank you, next. I'm so fucking grateful for my ex
E|--------------0--------------------------------1--
B|--------------1--------------------------------1--
G|--------------3--------------------------------2--
D|--------------2--------------------------------3--
A|--------------3--------------------------------3--
E|-----------------------------------------------1--

                  E7                       Am
Thank you, next (next) , thank you, next (next) 
E|-----------------0-----------------------0--
B|-----------------3-----------------------1--
G|-----------------1-----------------------2--
D|-----------------2-----------------------2--
A|-----------------2-----------------------0--
E|-----------------0--------------------------
                 
                 C7                              
Thank you, next. I'm so fucking...
E|--------------0-----------------
B|--------------1-----------------
G|--------------3-----------------
D|--------------2-----------------
A|--------------3-----------------
E|--------------------------------

2nd Verse

                         F                             E7
Spend more time with my friends, I ain't worried 'bout nothin'
E|-----------------------1-----------------------------0--
B|-----------------------1-----------------------------3--
G|-----------------------2-----------------------------1--
D|-----------------------3-----------------------------2--
A|-----------------------3-----------------------------2--
E|-----------------------1-----------------------------0--

                     Am                      C7
Plus, I met someone else, we havin' better discussions
E|--------------------0-----------------------0--------
B|--------------------1-----------------------1--------
G|--------------------2-----------------------3--------
D|--------------------2-----------------------2--------
A|--------------------0-----------------------3--------
E|-----------------------------------------------------

                      F                                E7
I know they say I move on too fast, but this one gon' last
E|--------------------1--------------------------------0--
B|--------------------1--------------------------------3--
G|--------------------2--------------------------------1--
D|--------------------3--------------------------------2--
A|--------------------3--------------------------------2--
E|--------------------1--------------------------------0--

                  Am                      C7
'Cause her name is Ari, And I'm so good with that 
E|-----------------0-----------------------0--
B|-----------------1-----------------------1--
G|-----------------2-----------------------3--
D|-----------------2-----------------------2--
A|-----------------0-----------------------3--
E|--------------------------------------------

2nd Pre-Chorus

               F                  E7
She taught me love, she taught me patience 
E|--------------1-----------------0--
B|--------------1-----------------3--
G|--------------2-----------------1--
D|--------------3-----------------2--
A|--------------3-----------------2--
E|--------------1-----------------0--

                  Am                C7
How she handles pain, that shit's amazing
E|-----------------0-----------------0--
B|-----------------1-----------------1--
G|-----------------2-----------------3--
D|-----------------2-----------------2--
A|-----------------0-----------------3--
E|--------------------------------------

                    F                         E7
I've loved and I've lost, but that's not what I see
E|-----------------1--------------------------0--
B|-----------------1--------------------------3--
G|-----------------2--------------------------1--
D|-----------------3--------------------------2--
A|-----------------3--------------------------2--
E|-----------------1--------------------------0--

                     Am                         C7
Cause look what I've found, ain't no need for searching
E|--------------------0--------------------------0--
B|--------------------1--------------------------1--
G|--------------------2--------------------------3--
D|--------------------2--------------------------2--
A|--------------------0--------------------------3--
E|--------------------------------------------------

                 F                      
And for that I say
E|--------------1--------
B|--------------1--------
G|--------------2--------
D|--------------3--------
A|--------------3--------
E|--------------1--------

2nd Chorus

                  E7                       Am
Thank you, next (next) , thank you, next (next) 
E|-----------------0-----------------------0--
B|-----------------3-----------------------1--
G|-----------------1-----------------------2--
D|-----------------2-----------------------2--
A|-----------------2-----------------------0--
E|-----------------0--------------------------
                 
                 C7                              F
Thank you, next. I'm so fucking grateful for my ex
E|--------------0--------------------------------1--
B|--------------1--------------------------------1--
G|--------------3--------------------------------2--
D|--------------2--------------------------------3--
A|--------------3--------------------------------3--
E|-----------------------------------------------1--

                  E7                       Am
Thank you, next (next) , thank you, next (next) 
E|-----------------0-----------------------0--
B|-----------------3-----------------------1--
G|-----------------1-----------------------2--
D|-----------------2-----------------------2--
A|-----------------2-----------------------0--
E|-----------------0--------------------------
                 
                 C7                              F
Thank you, next. I'm so fucking grateful for my ex
E|--------------0--------------------------------1--
B|--------------1--------------------------------1--
G|--------------3--------------------------------2--
D|--------------2--------------------------------3--
A|--------------3--------------------------------3--
E|-----------------------------------------------1--

Pos-Chorus
               E7                 Am
Thank you, next. Thank you, next.
E|--------------0-----------------0--
B|--------------3-----------------1--
G|--------------1-----------------2--
D|--------------2-----------------2--
A|--------------2-----------------0--
E|--------------0--------------------
                 
                 C7                              
Thank you, next. I'm so fucking...
E|--------------0-----------------
B|--------------1-----------------
G|--------------3-----------------
D|--------------2-----------------
A|--------------3-----------------
E|--------------------------------

3rd Verse
                            F                          E7
One day I'll walk down the aisle, Holding hands with my mama
E|--------------------------1--------------------------0--
B|--------------------------1--------------------------3--
G|--------------------------2--------------------------1--
D|--------------------------3--------------------------2--
A|--------------------------3--------------------------2--
E|--------------------------1--------------------------0--

                     Am                          C7
I'll be thanking my dad, cause she grew from the drama
E|--------------------0--------------------------0-----
B|--------------------1--------------------------1-----
G|--------------------2--------------------------3-----
D|--------------------2--------------------------2-----
A|--------------------0--------------------------3-----
E|-----------------------------------------------------

                  F                                E7
Only wanna do it once, real bad, Gon' make that shit last
E|-----------------1--------------------------------0--
B|-----------------1--------------------------------3--
G|-----------------2--------------------------------1--
D|-----------------3--------------------------------2--
A|-----------------3--------------------------------2--
E|-----------------1--------------------------------0--

                      Am                            C7
God forbid something happens, least this song is a smash
E|--------------------0-----------------------------0--
B|--------------------1-----------------------------1--
G|--------------------2-----------------------------3--
D|--------------------2-----------------------------2--
A|--------------------0-----------------------------3--
E|-----------------------------------------------------

3rd Pre-Chorus

                   F                 E7
I've got so much love, Got so much patience 
E|-----------------1-----------------0--
B|-----------------1-----------------3--
G|-----------------2-----------------1--
D|-----------------3-----------------2--
A|-----------------3-----------------2--
E|-----------------1-----------------0--

                  Am                C7
And one taught me pain, I turned out amazing
E|-----------------0-----------------0--
B|-----------------1-----------------1--
G|-----------------2-----------------3--
D|-----------------2-----------------2--
A|-----------------0-----------------3--
E|--------------------------------------

                      F                       E7
I've loved and I've lost, but that's not what I see
E|--------------------1-----------------------0--
B|--------------------1-----------------------3--
G|--------------------2-----------------------1--
D|--------------------3-----------------------2--
A|--------------------3-----------------------2--
E|--------------------1-----------------------0--

                      Am                       C7
'Cause look what I've found, ain't no need for searching
E|--------------------0--------------------------0--------
B|--------------------1--------------------------1--------
G|--------------------2--------------------------3--------
D|--------------------2--------------------------2--------
A|--------------------0--------------------------3--------
E|--------------------------------------------------------

                   F                      
And for that, I'll say
E|-----------------1--------
B|-----------------1--------
G|-----------------2--------
D|-----------------3--------
A|-----------------3--------
E|-----------------1--------

3rd Chorus

                 E7                       Am
Thank you, next (next) , thank you, next (next) 
E|-----------------0-----------------------0--
B|-----------------3-----------------------1--
G|-----------------1-----------------------2--
D|-----------------2-----------------------2--
A|-----------------2-----------------------0--
E|-----------------0--------------------------
                 
                 C7                              F
Thank you, next. I'm so fucking grateful for my ex
E|--------------0--------------------------------1--
B|--------------1--------------------------------1--
G|--------------3--------------------------------2--
D|--------------2--------------------------------3--
A|--------------3--------------------------------3--
E|-----------------------------------------------1--

                  E7                       Am
Thank you, next (next) , thank you, next (next) 
E|-----------------0-----------------------0--
B|-----------------3-----------------------1--
G|-----------------1-----------------------2--
D|-----------------2-----------------------2--
A|-----------------2-----------------------0--
E|-----------------0--------------------------
                 
                 C7                              F
Thank you, next. I'm so fucking grateful for my ex
E|--------------0--------------------------------1--
B|--------------1--------------------------------1--
G|--------------3--------------------------------2--
D|--------------2--------------------------------3--
A|--------------3--------------------------------3--
E|-----------------------------------------------1--

Ending

               E7                 Am
Thank you, next. Thank you, next.
E|--------------0-----------------0--
B|--------------3-----------------1--
G|--------------1-----------------2--
D|--------------2-----------------2--
A|--------------2-----------------0--
E|--------------0--------------------
                 
                C7                                        
Thank you, next. 
E|--------------0-----------------
B|--------------1-----------------
G|--------------3-----------------
D|--------------2-----------------
A|--------------3-----------------
E|--------------------------------

    F                 E7                Am
       Thank you, next. Thank you, next.
E|--1-----------------0-----------------0--
B|--1-----------------3-----------------1--
G|--2-----------------1-----------------2--
D|--3-----------------2-----------------2--
A|--3-----------------2-----------------0--
E|--1-----------------0--------------------
                 
                 C7                              
Thank you, next. 
E|--------------0-----------------
B|--------------1-----------------
G|--------------3-----------------
D|--------------2-----------------
A|--------------3-----------------
E|--------------------------------

    F     E7   Am     C7
E|--1-----0-----0-----0--
B|--1-----3-----1-----1--
G|--2-----1-----2-----3--   ....
D|--3-----2-----2-----2--
A|--3-----2-----0-----3--
E|--1-----0--------------

tabs and chords, guitar tabs, music transcription, music technology, deep learning, music information retrieval, transcribe into tabs & chords, chordify, music renditions, songsterr, reverbnation, tabulature, bollywood chords, ultimate guitar, yousician, guitar lessons, acoustic guitar, electric guitar, guitar tuner, 911 tabs