Are You Gonna - Bass Tabs

(/) Slide Up  (\) Slide Down  (h) Hammer On  (p) Pull Off  (b) Bend (r) Release (v) Vibrato (x) Muted

Tabs for Song : 
BPM : 128

G|--------------------------------------
D|--------------------------------------
A|--7--7--5--7-----7--7-----5--7--5-----
E|-----------------------7-----------7--

G|-----------------------------------------------------------------------------------
D|-----5--3--5-----------5--3--5--3-----------5--3--5--0--5--0--4--0--3--0--2--0--1--
A|--------------5--------------------5-----------------------------------------------
E|--3-----------------3--------------------3-----------------------------------------

G|-----------------------------------------------------------------------------------------------------------
D|-----------------------------------------------------------------------------------------------------------
A|--7--7-----5--5-----5--5--------------7--7-----5--5-----5--5--------------7--7-----5--5-----5--5-----------
E|-----------------------------5--5--------------------------------5--5--------------------------------5--5--

G|-----------------------------------------
D|-----------------------------------------
A|--7--7-----5--5-----------0--4--0--5--6--
E|--------------------5--------------------



Song lyrics here 
G|--
D|--
A|--
E|--

Song lyrics here 
G|--
D|--
A|--
E|--

Use manual mode to free up cursor. Paste any tab in acousterr tab maker and we'll play it !!!

About Are You Gonna Be My Girl : "Are You Gonna Be My Girl" is the first single from the album Get Born . It was released in 2003 in Australia and the United Kingdom . The single has sold 1.3 million copies in the United States since 2012 . The song hit number 29 on the Billboard Hot 100, making it their first top 40 hit . It also hit number three on Modern Rock Tracks and number seven on the Mainstream Rock Tracks . In January 2018, as part of Triple M's "Ozzest 100", "Are You Gonna Be My Girl It was released in 2003. It was released as part of album Get Born. The genre is garage rock revival. The track was release in 2003. It is related to the album(s) - Get Born. The track has an affiliation to the band(s) - Jet.

About Jet (Australian band) : The group sold 6.5 million albums . The band dissolved in 2012, but reformed in 2016 . The group has sold more than 6 million albums and sold over six million records . Nic Cester and Chris Cester grew up in Dingley Village, a south-eastern suburb of Melbourne, Victoria . They listened to their father's classic Nic says You Am I had the biggest influence on Jet's developing musical tastes . Nic says Jet (Australian band) The group has many notable artists like Cameron Muncey,Mark Wilson,Nic,Chris Cester. Their music is influenced by genres - garage rock hard rock alternative rock indie rock.

About Get Born : Get Born is the debut studio album by Australian rock band Jet . The album has sold over 4 million copies worldwide . Jet's most popular song, "Are You Gonna Be My Girl Jet entered Sunset Sound Studios in Los Angeles with Dave Sardy to produce their debut album Get Born . Sardy had previously produced records for Marilyn Manson and The Dandy Warhols . The band left the studios halfway through recording the album to support the Rolling Stones Get Born also has a song dedicated to guitarist Cameron Muncey's brother, who died when he was a baby . "Are You Gonna Be My Girl", from this album, was voted number one in 2003 Triple J Hottest 100 . Get Born's most popular songs include Are You Gonna Be My Girl. It had an affiliation to bands - Jet. Its music is influenced by genres - garage rock hard rock alternative rock.

tabs and chords, guitar tabs, music transcription, music technology, deep learning, music information retrieval, transcribe into tabs & chords, chordify, music renditions, songsterr, reverbnation, tabulature, bollywood chords, ultimate guitar, yousician, guitar lessons, acoustic guitar, electric guitar, guitar tuner, 911 tabs