Guitar Tabs for Aqui Estou Dizendo

AQUI ESTOU DIZENDO, AQUI ESTOU CANTANDO
E|--------------------------------------------------------------------------------------------------
B|--------------------------------------------------------------------------------------------------
G|--------2--------------0--------0-----------------------0-----------------------------------------
D|--2-----------------------3--2--------3-----------0--------------------3--2--0--3-----2-----------
A|--------------------------------------------------------------------------------------------------
E|--------------------------------------------------------------------------------------------------

EU DIGO PARA TODOS E OS HINOS ESTÃO ENSINANDO
E|--------------------------------------------------------------------------------------------------
B|--------------------------------------------------------------------------------------------------
G|--------------------------------------------------------------------------------------------------
D|--------------------------2-----0-----0-----2-----3-----2--2--2--0--------------------------2--0--
A|--3--2--0--------0--3-----------------------------------------------3-----2-----0-----0--3--------
E|--------------------------------------------------------------------------------------------------


EU DIGO PARA TODOS E OS HINOS ESTÃO ENSINANDO
E|-----------------------------------------------------------------------------------
B|-----------------------------------------------------------------------------------
G|-----------------------------------------------------------------------------------
D|--------------------------2-----0-----0-----2-----3-----2--2--2--0-----------------
A|--3--2--0--------0--3-----------------------------------------------3-----2-----0--
E|-----------------------------------------------------------------------------------



tabs and chords, guitar tabs, music contests, music covers, songsterr, reverbnation, renditions, tabulature, bollywood chords, ultimate guitar, yousician, guitar lessons, torrins, fender, gibson, acoustic guitar, electric guitar, youtube covers, gootar, guitar tuner, A-Z tabs, 911 tabs