Are You Dead Yet - Guitar Tabs

Guitar 1
C|-------------------------------------------------------------------------|
G|-------------------------------------------------------------------------|
C|-------------------------------------------------------------------------|
F|----------------------------------------------------0--3-----0--3--2-----|
A|-----5---5h6-5------5---5-6*~----5---5h6------0--1--------0-----------3--|
D|-0-0---0--------0-0---0------0-0---0------5------------------------------|
pm.. .   .        . .   .      . .   . 
 
Guitar 2
C|-------------------------------------------------------------------------|
G|--------------------------------------------------------6---------6--5---|
C|-----------------------------------------------------7--------7---------5|
F|-----7---7h8-7------7---7-8*~----7----7-----5--7--8--------7-------------|
A|-------0--------------0-------------0----0-------------------------------|
D|-0-0------------0-0----------0-0-----------------------------------------|
pm.. .   .        . .   .      . .    .    .        .  .     .   .
 
Guitar 1
C|-------------------------------------------------------------------------|
G|-------------------------------------------------------------------------|
C|-------------------------------------------------------------------------|
F|-----7---7/8--7-------7---7-8-------7-----------3----------3---------3---|
A|-----5---5/6--5-------5---5-6-------5--0--3--5----5--3--5----5--3--5---3-|
D|-0-0---0----------0-0---0-------0-0----0---------------------------------|
pm.. .   .          . .   .       . .    .             .  .    .  .
 
Guitar 2
C|-------------------------------------------------------------------------|
G|-------------------------------------------------------------------------|
C|-------------------------------------------------------------------------|
F|-----7---7/8--7-------7---7-8-------7----------10---------10*-------10---|
A|-----5---5/6--5-------5---5-6-------5-----7--8----8--7--8----8--7--8---7-|
D|-0-0---0----------0-0---0-------0-0----0---------------------------------|
pm.. .   .          . .   .       . .    .  .  .    .  .  .       .  . . .
 
Guitar 1
C|-------------------------------------------------------------------------|
G|-------------------------------------------------------------------------|
C|-------------------------------------------------------------------------|
F|-----7---7/8--7-------7---7-8-------7-----------3----------3---------3---|
A|-----5---5/6--5-------5---5-6-------5--0--3--5----5--3--5----5--3--5---3-|
D|-0-0---0----------0-0---0-------0-0----0---------------------------------|
pm.. .   .          . .   .       . .    .             .  .    .  .
 
Guitar 2
C|-------------------------------------------------------------------------|
G|-------------------------------------------------------------------------|
C|-------------------------------------------------------------------------|
F|-----7---7/8--7-------7---7-8-------7----------10---------10*-------10---|
A|-----5---5/6--5-------5---5-6-------5-----7--8----8--7--8----8--7--8---7-|
D|-0-0---0----------0-0---0-------0-0----0---------------------------------|
pm.. .   .          . .   .       . .    .  .  .    .  .  .       .  . . .
 
Guitar 1
C|-------13-------13-------13---13----13------13-------13-----13---------12|
G|----17-------17-------17---------17------17-------17------17---13----13--|
C|----------------------------17-------------------------------------12----|
F|-------------------------------------------------------------------------|
A|-------------------------------------------------------------------------|
D|-0-0------0-0------0-0-----------------0-0------0-0-----0-0--------------|
pm.. .      . .      . .                 . .      . .     . .
 

About Are You Dead Yet? : Are You Dead Yet? is the fifth studio album by Finnish melodic death metal band Children of Bodom . It is the first album to feature guitarist Roope Latvala (Stone, Sinergy) Are You Dead Yet? is the second album to have two singles from it . It was also their first album with three music videos, with their third video being the title track . "If You Want Peace... Prepare for War" is English translation of Latin phrase Si vis pacem, para bellum . Also in Guitar Hero Warriors It had a contribution from notable artists like Roope Latvala,Alexander Kuoppala. It had an affiliation to bands - Children of Bodom. Its music is influenced by genres - death metal melodic death metal power metal.

tabs and chords, guitar tabs, music transcription, music technology, deep learning, music information retrieval, transcribe into tabs & chords, chordify, music renditions, songsterr, reverbnation, tabulature, bollywood chords, ultimate guitar, yousician, guitar lessons, acoustic guitar, electric guitar, guitar tuner, 911 tabs