Guitar Tabs for Apache By Hank Marvin

(/) Slide Up  (\) Slide Down  (h) Hammer On  (p) Pull Off  (b) Bend (r) Release (v) Vibrato (x) Muted

Tabs & Chords
BPM : 133.0
Check Track 2 for Chord Positions 

                   Am             D           Am             D           Am          D        
E|-----------------0-----5--5-----5-----3--3--0--3-----5-----5-----4--3--0-----5-----5-----2--
B|--------------------------------------------------------------------------------------------
G|--------------------------------------------------------------------------------------------
D|--------------------------------------------------------------------------------------------
A|--------------------------------------------------------------------------------------------
E|--------0-----------------------------------------------------------------------------------

             Am                                           D     E  Am                         
E|--2-----------------------0-----0-----------------------2--------------------------0-----0--
B|--------------------------------------------------------------3-----------------------------
G|--------------------------------------------------------------------------------------------
D|--------------------------------------------------------------------------------------------
A|-----2-----0-----0-----0-----------------------0-----------------0--0--0--------------------
E|--------------------------------------0--0--------------------------------0--0--------------

       Dm                   G                 Dm                Am    D        Am             F  
E|--------------------------------------------------------1-----0-----2--2-----0--0-----0--------
B|-----3-----3--3--------3--3--0--0--3--------------3--------------------------------------------
G|--------------------2--------------------------------------------------------------------------
D|-----------------2-----------------------------------------------------------------------------
A|--------------------------------------------0-----------------------------------------------3--
E|-----------------------------------------------------------------------------------------------

                                              Am                            F                    
E|--------------------------1-----------------------------0--------------------------------------
B|--------------1--1-----------------------------------------------------------------------------
G|-----------------------------------------------------------------------------------------------
D|--3-----3-----------3-----------3-----2-----2--2--------------0--2--------------3-----------3--
A|-----------------------------------------------------0-----------------2--3-----------3--------
E|-----------------------------------------------------------------------------------------------

                                  Am                                        F           G        
E|-----------------------------------------0-----0-----------------------------------------------
B|--------------------------------------------------------------------------------1-----0-----0--
G|-----------------------------------------------------------------------------------------------
D|--3--3-----3-----3--------3-----2--3-----------------------------------------------------------
A|--------3-----------3--3-----------------------------0-----------0-----------------------------
E|-----------------------------------------------------------0--------------1--------------------

             C           Am                      F           G                 C              
E|-----------0-----------------------------0-----1--------------------3--------------3--3--0--
B|-----1-----------3-----1-----1-----1-----------------1-----0-----1-----3-----3--3-----------
G|--------------------------------------------------------------------------------------------
D|--------------------------------------------------------------------------------------------
A|--------------------------------------------------------------------------------------------
E|--------------------------------------------------------------------------------------------

                         F           G                    C           Am                         
E|-----6-----1-----3-----1--1--1-----------------------------------3-----------------------------
B|-----------------------------------0--1-----1-----3--3--3--3--3--------------------------------
G|-----------------------------------------------------------------------------------------------
D|-----------------------------------------------------------------------------------------------
A|--------------------------------------------------------------------0--0-----0--------0--------
E|-----------------------------------------------------------------------------------0--------3--

       F                                                     Am                               
E|--------------------------------1-----------------------------------------------------------
B|--------------------------------------------------------------------------------------------
G|--------------------------------------------------------------------------------------------
D|-----------3--3--------3-----3-----3-----3-----3-----2-----2--------------------------------
A|-----3--3--------3--3-----3-----------3--------------------------0--------------0-----0--2--
E|-----------------------------------------------------------------------3-----0--------------

       F                                                        Am                            
E|-----------------------------------------------------------------------------------0-----0--
B|--------------------------------------------------------------------------------------------
G|--------------------------------------------------------------------------------------------
D|-----------3-----3-----3-----3-----3-----3-----3-----2--3-----2-----------------------------
A|-----3--3-----------------------3--------------------------------------------0--------------
E|-----------------------------------------------------------------0--0--3--------------------

                   A                 D                    Am                               A  
E|--------------------0-----------------------------------------0-----------------------------
B|-----------------------------------------3--------------------------------------------------
G|-----------2-----------------------------------2--2--------------------------------2--------
D|-----2-----------2--------2--4-----2--------0-----------2--------------------2-----------2--
A|--------------------------------------------------------------------------------------------
E|--------------------------------------------------------------------0--0--------------------

                D                       Am    A              Dm                      D        
E|--------------------------------------------------------------------------------------------
B|-----------------------------------------------------------3--3--3--3--3--3--3-----3--3--3--
G|--2-----------0-----------------2-----------------------------------------------2-----------
D|-----2--4--------4--2-----0-----------2-----3-----2-----------------------------------------
A|--------------------------------------------------------------------------------------------
E|--------------------------------------------------------------------------------------------

    G                 Dm                         Em    Am       A                 D           
E|--------------------------------------------------------------------------------------------
B|--0--0--------------3--------3-----3--3-----------------------------------------------------
G|-----------2--0-----------2--------------------------2-----2--------2-----------0-----------
D|--------------------------------------------------2-----------2--------2--4--------2-----0--
A|--------------------------------------------------------------------------------------------
E|-----------------------------------------0-----0--------------------------------------------

             Am                         F                 G           C           Am    F     
E|--------------0--------------0-----------------1--0-----3--3--------0-----------0-----1--1--
B|--------------------------1-----------------------------------3-----------3-----------------
G|-----2--------------2-----------------------------------------------------------------------
D|-----------2--------------------------3-----------------------------------------------------
A|--------------------------------2-----------------------------------------------------------
E|-----------------------------------------1--------------------------------------------------

       G                 C                                   F           G              C        
E|--------------3--------------3-----3--3-----4--------------------1-----3-----3--------0--------
B|-----0-----1--------3--3--------------------------------------------------------3-----------3--
G|-----------------------------------------------0-----0-----------------------------------------
D|-----------------------------------------------------------3-----------------------------------
A|-----------------------------------------------------------------------------------------------
E|-----------------------------------------------------------------------------------------------

       Am                F                                      Am                            
E|--------------------------------------------1-----------------------------------------------
B|--1--1-----1--------------------------------------------------------------------------------
G|--------------------------------------------------------------------------------------------
D|-----------------------------3-----3-----------3--3-----3-----2--3-----2--------------------
A|-----------------2-----3-----------------3--------------------------------------------1-----
E|--------------------------------------------------------------------------0--0--0--------0--

          F                                   Am                            D        Am       
E|--------1-----------------------0--1--------0-----5-----0-----0-----5-----5-----3--0-----0--
B|--------------------------------------------------------------------------------------------
G|--------------------------------------------------------------------------------------------
D|--------------------------3-----------3-----------------------------------------------------
A|--2-----------------3-----------------------------------------------------------------------
E|-----------1--1-----------------------------------------------------------------------------

                         D                       Am                D                             
E|-----------------------------------------------------------------------------------------------
B|--------1--3--3--4-----3--3--------1-----1-----------1-----4-----3-----------------1--1-----3--
G|-----2--------------------------2-----2--------2--2--------------------2--2--2-----------------
D|-----------------------------------------------------------------------------------------------
A|-----------------------------------------------------------------------------------------------
E|-----------------------------------------------------------------------------------------------

       Dm          A                                                        
E|-----------------------------5-----5--------17-17----------------9--------
B|-----------------------------------------------------3--------------------
G|-----2--------------------------------2-----------------------------------
D|-----------3-----------------------------2--------------------------------
A|-----------------0-----0--0-----------------------------0-----0--------0--
E|--------------------------------------------------------------------------

Guitar Tabs for Apache By Hank Marvin






                   Am             D           Am             D           Am          D        
E|-----------------0--------------2-----------0--------------2-----------0-----------2--------
B|-----------------1--------------3-----------1--------------3-----------1-----------3--------
G|-----------------2--------------2-----------2--------------2-----------2-----------2--------
D|-----------------2--------------0-----------2--------------0-----------2-----------0--------
A|-----------------0--------------------------0--------------------------0--------------------
E|--------------------------------------------------------------------------------------------

             Am                                           D     E  Am                         
E|-----------0--------------------------------------------2-----0--0--------------------------
B|-----------1--------------------------------------------3-----0--1--------------------------
G|-----------2--------------------------------------------2-----1--2--------------------------
D|-----------2--------------------------------------------0-----2--2--------------------------
A|-----------0--------------------------------------------------2--0--------------------------
E|--------------------------------------------------------------0-----------------------------

       Dm                   G                 Dm                Am    D        Am             F  
E|-----1--------------------3-----------------1-----------------0-----2--------0--------------1--
B|-----3--------------------3-----------------3-----------------1-----3--------1--------------1--
G|-----2--------------------4-----------------2-----------------2-----2--------2--------------2--
D|-----0--------------------5-----------------0-----------------2-----0--------2--------------3--
A|--------------------------5-----------------------------------0--------------0--------------3--
E|--------------------------3-----------------------------------------------------------------1--

                                              Am                            F                    
E|--------------------------------------------0-----------------------------1--------------------
B|--------------------------------------------1-----------------------------1--------------------
G|--------------------------------------------2-----------------------------2--------------------
D|--------------------------------------------2-----------------------------3--------------------
A|--------------------------------------------0-----------------------------3--------------------
E|--------------------------------------------------------------------------1--------------------

                                  Am                                        F           G        
E|--------------------------------0-----------------------------------------1-----------3--------
B|--------------------------------1-----------------------------------------1-----------3--------
G|--------------------------------2-----------------------------------------2-----------4--------
D|--------------------------------2-----------------------------------------3-----------5--------
A|--------------------------------0-----------------------------------------3-----------5--------
E|--------------------------------------------------------------------------1-----------3--------

             C           Am                      F           G                 C              
E|-----------0-----------0-----------------------1-----------3-----------------0--------------
B|-----------1-----------1-----------------------1-----------3-----------------1--------------
G|-----------0-----------2-----------------------2-----------4-----------------0--------------
D|-----------2-----------2-----------------------3-----------5-----------------2--------------
A|-----------3-----------0-----------------------3-----------5-----------------3--------------
E|-----------------------------------------------1-----------3--------------------------------

                         F           G                    C           Am                         
E|-----------------------1-----------3--------------------0-----------0--------------------------
B|-----------------------1-----------3--------------------1-----------1--------------------------
G|-----------------------2-----------4--------------------0-----------2--------------------------
D|-----------------------3-----------5--------------------2-----------2--------------------------
A|-----------------------3-----------5--------------------3-----------0--------------------------
E|-----------------------1-----------3-----------------------------------------------------------

       F                                                     Am                               
E|-----1-----------------------------------------------------0--------------------------------
B|-----1-----------------------------------------------------1--------------------------------
G|-----2-----------------------------------------------------2--------------------------------
D|-----3-----------------------------------------------------2--------------------------------
A|-----3-----------------------------------------------------0--------------------------------
E|-----1--------------------------------------------------------------------------------------

       F                                                        Am                            
E|-----1--------------------------------------------------------0-----------------------------
B|-----1--------------------------------------------------------1-----------------------------
G|-----2--------------------------------------------------------2-----------------------------
D|-----3--------------------------------------------------------2-----------------------------
A|-----3--------------------------------------------------------0-----------------------------
E|-----1--------------------------------------------------------------------------------------

                   A                 D                    Am                               A  
E|-----------------0-----------------2--------------------0--------------------------------0--
B|-----------------2-----------------3--------------------1--------------------------------2--
G|-----------------2-----------------2--------------------2--------------------------------2--
D|-----------------2-----------------0--------------------2--------------------------------2--
A|-----------------0--------------------------------------0--------------------------------0--
E|--------------------------------------------------------------------------------------------

                D                       Am    A              Dm                      D        
E|--------------2-----------------------0-----0--------------1-----------------------2--------
B|--------------3-----------------------1-----2--------------3-----------------------3--------
G|--------------2-----------------------2-----2--------------2-----------------------2--------
D|--------------0-----------------------2-----2--------------0-----------------------0--------
A|--------------------------------------0-----0-----------------------------------------------
E|--------------------------------------------------------------------------------------------

    G                 Dm                         Em    Am       A                 D           
E|--3-----------------1--------------------------0-----0--------0-----------------2-----------
B|--3-----------------3--------------------------0-----1--------2-----------------3-----------
G|--4-----------------2--------------------------0-----2--------2-----------------2-----------
D|--5-----------------0--------------------------2-----2--------2-----------------0-----------
A|--5--------------------------------------------2-----0--------0-----------------------------
E|--3--------------------------------------------0--------------------------------------------

             Am                         F                 G           C           Am    F     
E|-----------0--------------------------1-----------------3-----------0-----------0-----1-----
B|-----------1--------------------------1-----------------3-----------1-----------1-----1-----
G|-----------2--------------------------2-----------------4-----------0-----------2-----2-----
D|-----------2--------------------------3-----------------5-----------2-----------2-----3-----
A|-----------0--------------------------3-----------------5-----------3-----------0-----3-----
E|--------------------------------------1-----------------3-----------------------------1-----

       G                 C                                   F           G              C        
E|-----3-----------------0-----------------------------------1-----------3--------------0--------
B|-----3-----------------1-----------------------------------1-----------3--------------1--------
G|-----4-----------------0-----------------------------------2-----------4--------------0--------
D|-----5-----------------2-----------------------------------3-----------5--------------2--------
A|-----5-----------------3-----------------------------------3-----------5--------------3--------
E|-----3-----------------------------------------------------1-----------3-----------------------

       Am                F                                      Am                            
E|-----0-----------------1--------------------------------------0-----------------------------
B|-----1-----------------1--------------------------------------1-----------------------------
G|-----2-----------------2--------------------------------------2-----------------------------
D|-----2-----------------3--------------------------------------2-----------------------------
A|-----0-----------------3--------------------------------------0-----------------------------
E|-----------------------1--------------------------------------------------------------------

          F                                   Am                            D        Am       
E|--------1-----------------------------------0-----------------------------2--------0--------
B|--------1-----------------------------------1-----------------------------3--------1--------
G|--------2-----------------------------------2-----------------------------2--------2--------
D|--------3-----------------------------------2-----------------------------0--------2--------
A|--------3-----------------------------------0--------------------------------------0--------
E|--------1-----------------------------------------------------------------------------------

                         D                       Am                D                             
E|-----------------------2-----------------------0-----------------2-----------------------------
B|-----------------------3-----------------------1-----------------3-----------------------------
G|-----------------------2-----------------------2-----------------2-----------------------------
D|-----------------------0-----------------------2-----------------0-----------------------------
A|-----------------------------------------------0-----------------------------------------------
E|-----------------------------------------------------------------------------------------------

       Dm          A                                                        
E|-----1-----------0--------------------------------------------------------
B|-----3-----------2--------------------------------------------------------
G|-----2-----------2--------------------------------------------------------
D|-----0-----------2--------------------------------------------------------
A|-----------------0--------------------------------------------------------
E|--------------------------------------------------------------------------

tabs and chords, guitar tabs, music transcription, music technology, deep learning, music information retrieval, transcribe into tabs & chords, chordify, music renditions, songsterr, reverbnation, tabulature, bollywood chords, ultimate guitar, yousician, guitar lessons, acoustic guitar, electric guitar, guitar tuner, 911 tabs