Guitar Tabs for Anna Lisa

(/) Slide Up  (\) Slide Down  (h) Hammer On  (p) Pull Off  (b) Bend (r) Release (v) Vibrato (x) Muted

Tabs for Song : 

Song lyrics here
E|--------------3--------------------2--------------------------3--------------------2-----------------------7--------------------7-----------
B|-----------3-----3-----------------3-----3-----------------3-----3-----------------3-----3-----------------3--------------------3-----------
G|--------4-----------4-----------4-----------4-----------4-----------4-----------4-----------4-----------5--5-----------------5--5-----------
D|-----5-----------------5-----4-----------------4-----5-----------------5-----4-----------------4-----5--------------------5-----------------
A|--------------------------2-----------------------------------------------2-----------------------3--------------------3--------------------
E|--3-----------------------------------------------3-----------------------------------------------------------------------------------------

E|--------0--2--3-----7-----7--------5--------------3--------2--------------------------------------
B|--------------------------5-----5--------------5--3-----3--------------3--1--------0--------------
G|--------0--2--4--4--------5--5--------------5-----2--2--------------2-----0-----0--0--------------
D|-----2-----------------------------------7--------0--------0-----0--------2--2-----0-----0--------
A|--------------------------0-----------------------------------------------------------------------
E|--0-----------------------------------------------------------------------3--------3--------3--2--

E|--------0--2--3-----7-----7--------7--8--7--5-----------3--------2--------------8--------7-----
B|--------------------------5-----5--------------------5--3-----3--------------3--0-----0--------
G|--------0--2--4--4--------5--5--------------------5-----2--2--------------2-----0--0-----------
D|-----2-----------------------------------------7--------0--------0-----0-----------------------
A|--------------------------0--------------------------------------------------------------------
E|--0-----------------------------------------------------------------------------3--------------

E|--------12-12----12----12----------12----14----10-------10----10----10----------10----10/12-
B|-----------0--------------------0--------------7-----7-----------------------7--------------
G|-----12----------------------11----------------7--7-----------------------7-----------------
D|--10----------------------10-------------------9-----------------------9--------------------
A|--------------------------------------------------------------------------------------------
E|--------------------------------------------------------------------------------------------

E|--8-----7--8--------7--8--------7--5-----------------7--------------------------------------------------7--8--7-----------------
B|--5-----------------5-----------5-----------8--10-------8--------8-----------------8-----8---8/10----------------8-----8--7-----
G|--5--5-----------5--5--------5--5--------5--------------------------9-----------8-----------------------------------7-----7-----
D|--7-----------6-----------5-----------4--------------------9-----------9-----7---------------0/---------------------------0-----
A|--------------------------------------------------7-----------------------------------------------------------------------------
E|--------------------------------------------------------------------------8-----------------------------------------------------

Song lyrics here
E|--
B|--
G|--
D|--
A|--
E|--

Paste any tab in acousterr's tab maker and we'll play it !!!
Now supports capo and sound effects for vibrato/pull-off/hammer/bends/mutes etc !!! Checkout help section

tabs and chords, guitar tabs, music transcription, music technology, deep learning, music information retrieval, transcribe into tabs & chords, chordify, music renditions, songsterr, reverbnation, tabulature, bollywood chords, ultimate guitar, yousician, guitar lessons, acoustic guitar, electric guitar, guitar tuner, 911 tabs