Bass Tabs for Animal In A Cage


Tabs for Song : Animal in a Cage 

Intro: 2x
Gb|--------------
Db|--------------
Ab|--2-----5-----
Eb|-----3-----5--

Vers1: Halftime! 2x

Gb|-------------
Db|-------------
Ab|-2-----5-----
Eb|----3-----5--

Intro 2x

Vers 2
Übergang Chorus:

Gb|---------------
Db|---------------
Ab|-------7--5----
Eb|-3--5----------

Chorus: 2x normal, 2x mit Rhythmusänderung
Gb|-------------
Db|-------------
Ab|-2-----5-----
Eb|----3-----5--

Zwischenteil: 4x (beim 4. Mal am Ende leere E Saite halten statt A)
Gb|----------------------------
Db|----------------------------
Ab|-2--------5--4--2-----------
Eb|----2--3-----------2--3--5--

Chorus

Intro

Paste any tab in acousterr's tab maker and we'll play it !!!
Now supports capo and sound effects for vibrato/pull-off/hammer/bends/mutes etc !!! Checkout help section
tabs and chords, guitar tabs, music contests, music covers, songsterr, reverbnation, renditions, tabulature, bollywood chords, ultimate guitar, yousician, guitar lessons, torrins, fender, gibson, acoustic guitar, electric guitar, youtube covers, gootar, guitar tuner, A-Z tabs, 911 tabs