Guitar Tabs for Animal Crossing - Stale Cupcakes

(/) Slide Up  (\) Slide Down  (h) Hammer On  (p) Pull Off  (b) Bend (r) Release (v) Vibrato (x) Muted

Tabs for Song :
BPM : 150

Song lyrics here 
E|--------------------0-----------0-----------0-----------------------0-----------0-----------0--------
B|--------2-----0-----------2-----------0-----------------2-----0-----------2-----------0--------------
G|-----2-----2-----2-----2-----2-----2-----2-----------2-----2-----2-----2-----2-----2-----2-----------
D|-----------------------------------------------2-----------------------------------------------2-----
A|--0-----------------------------------------------0-----------------------------------------------0--
E|-----------------------------------------------------------------------------------------------------

E|-----------------0-----------0-----------0-----------------------0-----------0-----------0-----
B|-----2-----0-----------2-----------0-----------------2-----0-----------2-----------0-----------
G|--2-----2-----2-----2-----2-----2-----2-----------2-----2-----2-----2-----2-----2-----2--------
D|--------------------------------------------2-----------------------------------------------2--
A|-----------------------------------------------0-----------------------------------------------
E|-----------------------------------------------------------------------------------------------

E|--------------------0-----------------0-----2-----------------0-----------------------------------
B|--------------0-----------------3-----------------------0-----------0-----------3-----3-----3-----
G|--------2--------------------2-----2-----2-----2-----2-----2-----2-----2-----2-----2-----2-----2--
D|-----2-----2-----2-----2--0-----------------------------------------------------------------------
A|--------------------------------------------------4-----------------------2-----------------------
E|--2-----------------------------------------------------------------------------------------------

E|--------------------------------------------0-----------0-----------0-----------------------0-----
B|--------3-----3-----3-----------2-----0-----------2-----------0-----------------------0-----------
G|-----2-----2-----2-----2-----2-----2-----2-----2-----2-----2-----2--------------2-----------------
D|-----------------------------------------------------------------------2-----2-----2-----2-----2--
A|--------------------------0-----------------------------------------------------------------------
E|--0-----------------------------------------------------------------------2-----------------------

E|--------------0-----2-----------------0-----------------------------------------------------0-----
B|--------3-----------------------0-----------0-----------3-----------3-----------2-----0-----------
G|-----2-----2-----2-----2-----2-----2-----2-----2-----2-----2-----2-----2-----2-----2-----2-----2--
D|--0-----------------------------------------------------------------------------------------------
A|--------------------------4-----------------------2-----------------------0-----------------------
E|--------------------------------------------------------------0-----------------------------------

E|--------0-----------0-----------------------------------------------------------------2-----------
B|--2-----------0-----------------------7-----------------------6-----------------2-----------2-----
G|-----2-----2-----2--------------7-----------7-----------6-----------6--------2-----2-----2-----2--
D|-----------------------2-----7-----7-----7-----7-----6-----6-----6-----6--------------------------
A|--------------------------5-----------------------4-----------------------------------------------
E|--------------------------------------------------------------------------2-----------------------

E|--------------------------------------------2-----2-----------2-----------0-----------0-----------
B|--------------6-----------7-----------0--2-----2--------2-----------2-----------0-----------0-----
G|--------6-----------6-----------6--------------------2-----2-----2-----2-----1-----1-----1-----1--
D|-----6-----6-----6-----6-----7-----7--------------0-----------------------------------------------
A|--4-----------------------0-----------------------------------------------4-----------------------
E|--------------------------------------------------------------------------------------------------

E|--------------------------------------------------------------------0-----------0-----------0--------
B|--3-----------------------3-----------3-----------------2-----0-----------2-----------0--------------
G|--------2-----------2-----------2-----------2--------2-----2-----2-----2-----2-----2-----2-----------
D|-----0-----0-----0-----0-----4-----4-----4-----4-----------------------------------------------2-----
A|--2-----------2-----------------------------------0-----------------------------------------------0--
E|--------------------------0--------------------------------------------------------------------------

E|-----------------0-----------0-----------0-----------------------------------------0-----2-----
B|-----2-----0-----------2-----------0-----------------------0-----------------3-----------------
G|--2-----2-----2-----2-----2-----2-----2--------------2-----------2--------2-----2-----2-----2--
D|--------------------------------------------2-----2-----2-----2-----2--0-----------------------
A|-----------------------------------------------------------------------------------------------
E|-----------------------------------------------2-----------------------------------------------

E|--------------0-----------------------------------------------------------------0-----------------
B|--------0-----------0-----------3-----3-----3-----------3-----3-----3-----------------------------
G|-----2-----2-----2-----2-----2-----2-----2-----2-----2-----2-----2--2-----------------------------
D|--------------------------------------------------------------------4-----------------------------
A|--4-----------------------2-----------------------------------------------------------------------
E|--------------------------------------------------0-----------------0-----------------------------

E|--------------------0-----------0-----------0-----5--------------------
B|--------2-----0-----------2-----------0--------------------------------
G|-----2-----2-----2-----2-----2-----2-----2-----------------------------
D|-----------------------------------------------------------------------
A|--0--------------------------------------------------------------------
E|-----------------------------------------------------------------------

E|--
B|--
G|--
D|--
A|--
E|--

E|--
B|--
G|--
D|--
A|--
E|--

E|--
B|--
G|--
D|--
A|--
E|--


Song lyrics here 
E|--
B|--
G|--
D|--
A|--
E|--

Use manual mode to free up cursor. Paste any tab in acousterr tab maker and we'll play it !!!

Guitar Tabs for Animal Crossing - Stale Cupcakes






E|--
B|--
G|--
D|--
A|--
E|--

E|-----------------------------------------------------------------------------------------------
B|-----------------------------------------------------------------------------------0-----------
G|-----------------------------------------------2-----------------------------1--2--------2--1--
D|-----------------------------------------------------------------------------------------------
A|-----------------------------------------------------------------------------------------------
E|-----------------------------------------------------------------------------------------------

E|--------------------------------------------------------------------------------------------------
B|--------------------------------------------------------------------------------------------------
G|--------------------------------------1-----2-----2-----------------------------------------------
D|--4-----------------------------4--------------------------2--------------0--2--4-----------------
A|--------------------------------------------------------------4--------4--------------------------
E|--------------------------------------------------------------------------------------------------

E|--------------------------------------------------------------------------------------------------
B|--------------------------------------------------------------------------------------------------
G|--------------------------2-----------------------------1--2--4-----2--1--------------------------
D|--------------------------------------------------------------------------4-----------------------
A|--------------------------------------------------------------------------------------------------
E|--------------------------------------------------------------------------------------------------

E|--------------------------------------------------------------------------------------------------
B|--------------------------------------------------------------------------------------------------
G|--------------1-----2-----2-----------------------------------------------------------------------
D|--------4--------------------------2--------------0--2--4-----------------------------------------
A|--------------------------------------4--------4--------------0-----2-----0-----------------------
E|--------------------------------------------------------------------------------------------------

E|--------------------------------------------------------------------------------------------------
B|--------------------------------------------------------------0-----------------------------------
G|-----------------------------2--------------------1--1--2--2--------1--2--------------------------
D|--------------------------4-----------------------------------------------------------------------
A|--------------------------------------------------------------------------------------------------
E|--------------------------------------------------------------------------------------------------

E|--------------------------------------------------------------------------------------------------
B|--------------0-----3--2--------------------2-----2--0--------------------------0-----------------
G|--1--1--2--2--------------------------------------------2-----------------------------------1-----
D|--------------------------------------------------------------------------2-----------------------
A|-----------------------------------------------------------------------4--------------------------
E|--------------------------------------------------------------------------------------------------

E|-----------------------------------------------------------------------------------------------------
B|-----------------------------------------------------------------------------------------------------
G|--2--------------------------------------------------------------------------------------------------
D|-----------------------------------------------------------------------------------------------------
A|-----------------------------------------------------------------------------------------------------
E|-----------------------------------------------------------------------------------------------------

E|--
B|--
G|--
D|--
A|--
E|--
      
E|--
B|--
G|--
D|--
A|--
E|--

E|--
B|--
G|--
D|--
A|--
E|--

E|--
B|--
G|--
D|--
A|--
E|--

E|--
B|--
G|--
D|--
A|--
E|--

E|--
B|--
G|--
D|--
A|--
E|--

E|--
B|--
G|--
D|--
A|--
E|--



E|--
B|--
G|--
D|--
A|--
E|--

tabs and chords, guitar tabs, music transcription, music technology, deep learning, music information retrieval, transcribe into tabs & chords, chordify, music renditions, songsterr, reverbnation, tabulature, bollywood chords, ultimate guitar, yousician, guitar lessons, acoustic guitar, electric guitar, guitar tuner, 911 tabs