Bass Tabs for Anicca Bass Tab

(/) Slide Up  (\) Slide Down  (h) Hammer On  (p) Pull Off  (b) Bend (r) Release (v) Vibrato (x) Muted

Tabs for Song : 

Song lyrics here
G|--------------------------------------------------------------------------------------------------------------------------------------------------
D|--8-----8--10----------------------------------------------------------------------------------------------------3--4--3--------------------------
A|-----8-----------3-----4--------4--6-----6--------------------------------------------------------------------------------4--1--3-----------------
E|-----------------------------6-----------------1--1--1-----2-----1-----2-----1-----2-----1--1--1--1-----2--1--------------------------1--1--1-----

G|-----------------------------------------------------------------------------------------------------------------------------------
D|-----------------------------------------------------------------------------------------------------------------------------------
A|--------------------------------------------------------------------5--5--5--5--5--5--5--5--5--5--5--5--5--5--5--5--5--5--5--5--5--
E|--2-----1-----2-----1-----2-----1--1--1--1-----2--1--2--1--1--1--------------------------------------------------------------------

G|--------------------------------------------------------------------------------------------------------------------
D|--------------3--3--------5--5--7-----------------------------------------------------------------------------------
A|--5--5--5--5--------3--3-----------5--5--5--5--5--5--5--5--5--5--5--5--5--5--5--5--5--5--5--5--5--5--5--5--3--3--3--
E|--------------------------------------------------------------------------------------------------------------------

G|--------------------------------------------------------------------------------------------------------------------
D|--------------------------------------------------------------------------------------------------------------------
A|--3--0--0--0--0--5--5--5--5--5--5--5--5--1--1--1--1--1--1--1--1--------------------------3--3--3--3--3--3--3--3--5--
E|-----------------------------------------------------------------1--1--1--1--1--1--1--1-----------------------------

G|--------------------------------------------------------------------------------------------------------------------
D|-----------------------------------------------------------------------------3--5-----------------------------------
A|--5--5--5--5--5--5--5--1--1--1--1--1--1--1--1--------------------------3--3--------3--3--------------------8--------
E|-----------------------------------------------1--1--1--1--1--1--1--1-----------------------5-----5--6-----------8--

G|-----------------------------------------------------------------------------------------------------------------
D|--------------------------------------------------------------------7--------8-----------10----------------------
A|-----10----12----------------------------------3-----4-----5-----------8-----------8-----------10----------------
E|--------------10-10----3-----3-----5-----5--------------------------------------------------------8--9--10-10----

G|-----------------------------------------------------------------------------------------------------------------
D|-----------13-------------------------7--------------------------------------------------------------------------
A|--6-----13-------13----0-----0--4--7--------4--4--4--4--4-----4--6-----6-----------------------------------------
E|-----------------------------------------------------------4--------------3-----7-----4-----1--1--1--1--1-----1--

G|--------------------------------------------------------------------------------------------------------
D|--------6--5-----------------------------------------------------------------------------------10-------
A|--------------6--3-----------4-----4--4--4-----4--6-----6--6--6--6--------------------1---3\10----10----
E|--4-----------------6--4--------------------4-----------------------6--1-----1--1--1--------------------

G|--------------------------------------------------------------------------------------------------------------------
D|-----------------------------------------------------------------------------------8--------------------------------
A|--4-----4--4--4-----4--6-----6-----------------------------8--6--6--5--------5--8--------4-----4--4--4--4--4--6-----
E|-----------------4--------------3-----7-----4-----3--1--------------------6-----------------------------------------

G|--------------------------------------------------------------------------------------------------------------
D|--------------------8-----8--10-------------------------------------------------------------------------------
A|--6--6--6--6--6--------8-----------10----4--------4--6-----6--------------------------------------------------
E|-----------------------------------------------6-----------------1--1--1-----2--1--2--1--2--1--1--1--1--2--1--

G|-----------------------------------------------------------------------------------------------------
D|--3--4--3--------------------------------------------------------------------------------------------
A|-----------4--1--3-----------------------------------------------------------------------------------
E|--------------------1--1--1-----2-----1-----2-----1-----2-----1--1--1--1--2-----1-----2-----1--1--1--



Song lyrics here
G|--
D|--
A|--
E|--

Paste any tab in acousterr's tab maker and we'll play it !!!
Now supports capo and sound effects for vibrato/pull-off/hammer/bends/mutes etc !!! Checkout help section

Guitar Tabs for Anicca Bass Tab





E|--
B|--
G|--
D|--
A|--
E|--

tabs and chords, guitar tabs, music transcription, music technology, deep learning, music information retrieval, transcribe into tabs & chords, chordify, music renditions, songsterr, reverbnation, tabulature, bollywood chords, ultimate guitar, yousician, guitar lessons, acoustic guitar, electric guitar, guitar tuner, 911 tabs