Angels Of Debauchery - Winds Of Plague - Guitar Tabs

Guitar 1
    
                                                                                                                                                                                                                                                                                                                                                                                                                                                                                                                                                                                                                                                                                                                                                                                                                                                                                                                                                                                                                                                                                                                                                                                              
E|-------------------------|-----------------------|
B|-------------------------|-----------------------|
G|-------------------------|-----------------------|
D|-------------------------|-----------------------|
A|--1--4--1-----0--3--2----|2--1-----2--1-----2--1-|
E|--1--4--1-----0--3--2----|2--1-----2--1-----2--1-|

    
                                                                                                                                                                                                                                                                                                                                                                                                                                                                                                                                                                                                                                                                                                                                                                                                                                                                                                                                                                                                                                                                                                                                                                                              
E|-------------------------|-----------------------|
B|-------------------------|-----------------------|
G|-------------------------|-----------------------|
D|-------------------------|-----------------------|
A|--1--4--1-----0--3--2----|2--1-----2--1-----2--1-|
E|--1--4--1-----0--3--2----|2--1-----2--1-----2--1-|

    
                                                                                                                                                                                                                                                                                                                                                                                                                                                                                                                                                                                                                                                                                                                                                                                                                                                                                                                                                                                                                                                                                                                                                                                              
E|-------------------------|-----------------------|
B|-------------------------|-----------------------|
G|-------------------------|-----------------------|
D|-------------------------|-----------------------|
A|--1--4--1-----0--3--2----|2--1-----2-----1-------|
E|--1--4--1-----0--3--2----|2--1-----2-----1-------|

    
                                                                                                                                                                                                                                                                                                                                                                                                                                                                                                                                                                                                                                                                                                                                                                                                                                                                                                                                                                                                                                                                                                                                                                                              
E|-------------------------|-----------------------|
B|-------------------------|-----------------------|
G|-------------------------|-----------------------|
D|-------------------------|-----------------------|
A|--1--4--1-----0--3--2----|2--1-----2--1-----2--1-|
E|--1--4--1-----0--3--2----|2--1-----2--1-----2--1-|

    
                                                                                                                                                                                                                                                                                                                                                                                                                                                                                                                                                                                                                                                                                                                                                                                                                                                                                                                                                                                                                                                                                                                                                                                              
E|-------------------------|-----------------------|
B|-------------------------|-----------------------|
G|-------------------------|-----------------------|
D|-------------------------|-----------------------|
A|--1--4--1-----0--3--2----|2--1-----2--1-----2--1-|
E|--1--4--1-----0--3--2----|2--1-----2--1-----2--1-|

    
                                                                                                                                                                                                                                                                                                                                                                                                                                                                                                                                                                                                                                                                                                                                                                                                                                                                                                                                                                                                                                                                                                                                                                                              
E|-------------------------------------|-----------------------|
B|-------------------------------------|-----------------------|
G|-------------------------------------|-----------------------|
D|-------------------------------------|-----------------------|
A|--1--4--4--4--4--4--0--3--5--5--5--5-|2--1-----2--1-----2--1-|
E|--1--4--------------0--3-------------|2--1-----2--1-----2--1-|

    
                                                                                                                                                                                                                                                                                                                                                                                                                                                                                                                                                                                                                                                                                                                                                                                                                                                                                                                                                                                                                                                                                                                                                                                              
E|-------------------------------------|-----------------------|
B|-------------------------------------|-----------------------|
G|-------------------------------------|-----------------------|
D|-------------------------------------|-----------------------|
A|--2--1--4--4--4--4--2--1--5--5--5--5-|2--1-----2--1-----2--1-|
E|--2--1--------------2--1-------------|2--1-----2--1-----2--1-|

    
                                                                                                                                                                                                                                                                                                                                                                                                                                                                                                                                                                                                                                                                                                                                                                                                                                                                                                                                                                                                                                                                                                                                                                                              
E|-------------------------------------------------------|-----------------------|
B|-------------------------------------------------------|-----------------------|
G|-------------------------------------------------------|-----------------------|
D|-------------------------------------------------------|-----------------------|
A|--2--1--6--6--6--6--6--6--6--2--1--7--7--7--7--7--7--7-|2--1-----2--1-----2--1-|
E|--2--1-----------------------2--1----------------------|2--1-----2--1-----2--1-|

    
                                                                                                                                                                                                                                                                                                                                                                                                                                                                                                                                                                                                                                                                                                                                                                                                                                                                                                                                                                                                                                                                                                                                                                                              
E|-------------------------------------------------------|-----------------------|
B|-------------------------------------------------------|-----------------------|
G|-------------------------------------------------------|-----------------------|
D|-------------------------------------------------------|-----------------------|
A|--2--1--9--9--9--9--9--9--9--2--1--10-10-10-10-10-10-10|2--1-----2--1-----2--1-|
E|--2--1-----------------------2--1----------------------|2--1-----2--1-----2--1-|

    
                                                                                                                                                                                                                                                                                                                                                                                                                                                                                                                                                                                                                                                                                                                                                                                                                                                                                                                                                                                                                                                                                                                                                                                              
E|-------------------------|-----------------------|
B|-------------------------|-----------------------|
G|-------------------------|-----------------------|
D|-------------------------|-----------------------|
A|--------5-----7--------12|10-------10-------10---|
E|--0--7-----0-----0--8----|---0--0-----0--0-----0-|

    
                                                                                                                                                                                                                                                                                                                                                                                                                                                                                                                                                                                                                                                                                                                                                                                                                                                                                                                                                                                                                                                                                                                                                                                              
E|-------------------------|-----------------------|
B|-------------------------|-----------------------|
G|-------------------------|-----------------------|
D|-------------------------|-----------------------|
A|--12-------12-------12---|14-------14-------14---|
E|-----0--0-----0--0-----0-|---0--0-----0--0-----0-|

    
                                                                                                                                                                                                                                                                                                                                                                                                                                                                                                                                                                                                                                                                                                                                                                                                                                                                                                                                                                                                                                                                                                                                                                                              
E|-------------------------------------------------|-----------------------|
B|-------------------------------------------------|-----------------------|
G|-------------------------------------------------|-----------------------|
D|--------------------------10-12----14-12-14----16|-----------------------|
A|--9--10----12-10-12----14------------------------|15-------15-------15---|
E|-------------------------------------------------|---0--0-----0--0-----0-|

    
                                                                                                                                                                                                                                                                                                                                                                                                                                                                                                                                                                                                                                                                                                                                                                                                                                                                                                                                                                                                                                                                                                                                                                                              
E|-------------------------|------------------14-17-14---------------|
B|-------------------------|---------------15----------15------------|
G|-------------------------|------------14----------------14---------|
D|-------------------------|---------16-------------------------16---|
A|--14-------14-------14---|14-17----------------------------------17|
E|-----0--0-----0--0-----0-|-----------------------------------------|

    
                                                                                                                                                                                                                                                                                                                                                                                                                                                                                                                                                                                                                                                                                                                                                                                                                                                                                                                                                                                                                                                                                                                                                                                              
E|--------------------12-15-12---------------|-----------------------|
B|-----------------13----------13------------|-----------------------|
G|--------------12----------------12---------|-----------------------|
D|-----------14-------------------------14---|-----------------------|
A|--12-15----------------------------------15|10-------10-------10---|
E|-------------------------------------------|---0--0-----0--0-----0-|

    
                                                                                                                                                                                                                                                                                                                                                                                                                                                                                                                                                                                                                                                                                                                                                                                                                                                                                                                                                                                                                                                                                                                                                                                              
E|-------------------------|-----------------------|
B|-------------------------|-----------------------|
G|-------------------------|-----------------------|
D|-------------------------|-----------------------|
A|--12-------12-------12---|14-------14-------14---|
E|-----0--0-----0--0-----0-|---0--0-----0--0-----0-|

    
                                                                                                                                                                                                                                                                                                                                                                                                                                                                                                                                                                                                                                                                                                                                                                                                                                                                                                                                                                                                                                                                                                                                                                                              
E|-------------------------------------------------|-----------------------|
B|-------------------------------------------------|-----------------------|
G|-------------------------------------------------|-----------------------|
D|--------------------------10-12----14-12-14----16|-----------------------|
A|--9--10----12-10-12----14------------------------|15-------15-------15---|
E|-------------------------------------------------|---0--0-----0--0-----0-|

    
                                                                                                                                                                                                                                                                                                                                                                                                                                                                                                                                                                                                                                                                                                                                                                                                                                                                                                                                                                                                                                                                                                                                                                                              
E|-------------------------|------------------14-17-14---------------|
B|-------------------------|---------------15----------15------------|
G|-------------------------|------------14----------------14---------|
D|-------------------------|---------16-------------------------16---|
A|--14-------14-------14---|14-17----------------------------------17|
E|-----0--0-----0--0-----0-|-----------------------------------------|

    
                                                                                                                                                                                                                                                                                                                                                                                                                                                                                                                                                                                                                                                                                                                                                                                                                                                                                                                                                                                                                                                                                                                                                                                              
E|--------------------12-15-12---------------|-----------------------|
B|-----------------13----------13------------|-----------------------|
G|--------------12----------------12---------|-----------------------|
D|-----------14-------------------------14---|2-----1----------------|
A|--12-15----------------------------------15|2-----2----------------|
E|-------------------------------------------|0-----2----------------|

    
                                                                                                                                                                                                                                                                                                                                                                                                                                                                                                                                                                                                                                                                                                                                                                                                                                                                                                                                                                                                                                                                                                                                                                                              
E|-------------------------|-----------------------|
B|-------------------------|-----------------------|
G|-------------------------|-----------------------|
D|--2-----1----------------|2-----1----------------|
A|--3-----2----------------|2-----2----------------|
E|--3-----2----------------|0-----2----------------|

    
                                                                                                                                                                                                                                                                                                                                                                                                                                                                                                                                                                                                                                                                                                                                                                                                                                                                                                                                                                                                                                                                                                                                                                                              
E|-------------------------|-----------------------|
B|-------------------------|-----------------------|
G|-------------------------|-----------------------|
D|--2-----1----------------|2-----4----------------|
A|--3-----2----------------|2-----3----------------|
E|--3-----2----------------|3-----5----------------|

    
                                                                                                                                                                                                                                                                                                                                                                                                                                                                                                                                                                                                                                                                                                                                                                                                                                                                                                                                                                                                                                                                                                                                                                                              
E|-------------------------|-----------------------|
B|-------------------------|-----------------------|
G|-------------------------|-----------------------|
D|--0-----0----------------|2-----1----------------|
A|--2-----0----------------|2-----2----------------|
E|--3-----2----------------|0-----2----------------|

    
                                                                                                                                                                                                                                                                                                                                                                                                                                                                                                                                                                                                                                                                                                                                                                                                                                                                                                                                                                                                                                                                                                                                                                                              
E|-------------------------|-----------------------|
B|-------------------------|-----------------------|
G|-------------------------|-----------------------|
D|--2-----1----------------|2-----4----------------|
A|--3-----2----------------|2-----3----------------|
E|--3-----2----------------|3-----5----------------|

    
                                                                                                                                                                                                                                                                                                                                                                                                                                                                                                                                                                                                                                                                                                                                                                                                                                                                                                                                                                                                                                                                                                                                                                                              
E|-------------------------|-----------------------|
B|-------------------------|-----------------------|
G|-------------------------|-----------------------|
D|--0-----0----------------|2-----1----------------|
A|--2-----0----------------|2-----2----------------|
E|--3-----2----------------|0-----2----------------|

    
                                                                                                                                                                                                                                                                                                                                                                                                                                                                                                                                                                                                                                                                                                                                                                                                                                                                                                                                                                                                                                                                                                                                                                                              
E|----------------------------|--------------------------------------|
B|----------------------------|--------------------------------------|
G|----------------------------|--------------------------------------|
D|----------------------------|--------------------------------------|
A|--1-----1-----1-------------|1--1-----1--1--1--1-----1--1-----1--1-|
E|--1-----1-----1-------------|1--1-----1--1--1--1-----1--1-----1--1-|

    
                                                                                                                                                                                                                                                                                                                                                                                                                                                                                                                                                                                                                                                                                                                                                                                                                                                                                                                                                                                                                                                                                                                                                                                              
E|----------------------------------------|--------------------------------------|
B|----------------------------------------|--------------------------------------|
G|----------------------------------------|--------------------------------------|
D|----------------------------------------|--------------------------------------|
A|--1--1-----1--1--1--1-----1--1-----1--1-|1--1-----1--1--1--1-----1--1-----1--1-|
E|--1--1-----1--1--1--1-----1--1-----1--1-|1--1-----1--1--1--1-----1--1-----1--1-|

    
                                                                                                                                                                                                                                                                                                                                                                                                                                                                                                                                                                                                                                                                                                                                                                                                                                                                                                                                                                                                                                                                                                                                                                                              
E|-------------------------------------|-----------------------------------------|
B|-------------------------------------|-----------------------------------------|
G|-------------------------------------|-----------------------------------------|
D|-------------------------------------|-----------------------------------------|
A|--1--1-----1--1--1--1--4-----3-----2-|1--1-----1--1--1--1--1--1-----1--1--1--1-|
E|--1--1-----1--1--1--1--4-----3-----2-|1--1-----1--1--1--1--1--1-----1--1--1--1-|

    
                                                                                                                                                                                                                                                                                                                                                                                                                                                                                                                                                                                                                                                                                                                                                                                                                                                                                                                                                                                                                                                                                                                                                                                              
E|-------------------------------------------|-----------------------------------------|
B|-------------------------------------------|-----------------------------------------|
G|-------------------------------------------|-----------------------------------------|
D|-------------------------------------------|-----------------------------------------|
A|--1--1-----1--1--1--1--1--1-----1--1--1--1-|1--1-----1--1--1--1--1--1-----1--1--1--1-|
E|--1--1-----1--1--1--1--1--1-----1--1--1--1-|1--1-----1--1--1--1--1--1-----1--1--1--1-|

    
                                                                                                                                                                                                                                                                                                                                                                                                                                                                                                                                                                                                                                                                                                                                                                                                                                                                                                                                                                                                                                                                                                                                                                                              
E|-------------------------------------------|-----------------------------------|
B|-------------------------------------------|------------1-----------------0----|
G|-------------------------------------------|------4-----------------2----------|
D|-------------------------------------------|2-----------------1----------------|
A|--1--1-----1--1--1--1--1--1-----1--1--1--1-|-----------------------------------|
E|--1--1-----1--1--1--1--1--1-----1--1--1--1-|0-----------------2----------------|

    
                                                                                                                                                                                                                                                                                                                                                                                                                                                                                                                                                                                                                                                                                                                                                                                                                                                                                                                                                                                                                                                                                                                                                                                              
E|-------------------------------------|------------3-----------------5----|
B|-------------------------------------|------5-----------------5----------|
G|--------------------------4----------|4-----------------5----------------|
D|--2-----------------------------4----|5-----------------4----------------|
A|--------3-----5-----2----------------|-----------------------------------|
E|--3-----------------2----------------|0-----------------5----------------|

    
                                                                                                                                                                                                                                                                                                                                                                                                                                                                                                                                                                                                                                                                                                                                                                                                                                                                                                                                                                                                                                                                                                                                                                                              
E|-------------------------------------|-----------------------------------|
B|-------------------------------------|------------1-----------------0----|
G|--7-----5-----7-----7----------------|------4-----------------2----------|
D|--5-----------------7-----------7----|2-----------------1----------------|
A|--------------------9-----9----------|-----------------------------------|
E|--7-----------------10---------------|0-----------------2----------------|

About Decimate the Weak : Decimate the Weak is the first by Winds of Plague to be released through major label Century Media . The album is the last to include drummer Jeff Tenney and keyboardist Matt Fineman . Decimate the Weak peaked at No. 9 on the Billboard Top Heatseekers chart . Decimate Decimate the Weak album features the songs "A Cold Day in Hell", "Anthems of Apocalypse", "Legions" and "One Body Too Many" were originally available on their Decimate the Weak's most popular songs include The Impaler. It had a contribution from notable artists like Jeff Tenney,Matt Fineman. Its music is influenced by genres - deathcore symphonic metal.

tabs and chords, guitar tabs, music transcription, music technology, deep learning, music information retrieval, transcribe into tabs & chords, chordify, music renditions, songsterr, reverbnation, tabulature, bollywood chords, ultimate guitar, yousician, guitar lessons, acoustic guitar, electric guitar, guitar tuner, 911 tabs