And When She Was Bad - Cinerama - Guitar Tabs

Guitarra Ac├║stica
    
                                                                                                                                                                                                                                                                                                                                                                                                                                                                                                                                                                                                 
E|-------------------------|
B|-------------------------|
G|-------------------------|
D|--------2--------2-------|
A|-----3--------3--------3-|
E|--5--------5--------5----|

    
    Em                                                                                                                                                                                                                                                                                                                                                                                                                                                                                                                                                                                             Em                                                                                                                                                                                                                                                                                                                                                                                                                                                                                                                                                                                             
E|-------------------------|-----------------------|
B|-------------------------|-----------------------|
G|--------0--------0-------|-----------------------|
D|-----2--------2--------2-|------3--------3-------|
A|-------------------------|---3--------3----------|
E|--0--------0--------0----|1--------1--------0--1-|

    
    G                                                                                                                                                                                                                                                                                                                                                                                                                                                                                                                                                                                             G                                                                                                                                                                                                                                                                                                                                                                                                                                                                                                                                                                                             
E|-------------------------|-----------------------|
B|-------------------------|-----------------------|
G|-------------------------|-----------------------|
D|--------0--------0-------|------2--------2-------|
A|-----2--------2--------2-|---3--------3--------3-|
E|--3--------3--------3----|5--------5--------5----|

    
                                                                                                                                                                                                                                                                                                                                                                                                                                                                                                                                                                                                                                                                                                                                                                                                                                                                                                                                                                                                                                                                                                                                                                                              
E|-------------------------|-----------------------|
B|-------------------------|-----------------------|
G|--------0--------0-------|-----------------------|
D|-----2--------2--------2-|------3--------3-------|
A|-------------------------|---3--------3----------|
E|--0--------0--------0----|1--------1--------0--1-|

    
                                                                                                                                                                                                                                                                                                                                                                                                                                                                                                                                                                                                                                                                                                                                                                                                                                                                                                                                                                                                                                                                                                                                                                                              
E|-------------------------|-----------------------|
B|-------------------------|-----------------------|
G|-------------------------|------2--------2-------|
D|--------0--------0-------|---3--------3--------3-|
A|-----2--------2-----0--2-|3--------3--------3----|
E|--3--------3-------------|-----------------------|

    
    C                                                                                                                                                                                                                                                                                                                                                                                                                                                                                                                                                                                             C                                                                                                                                                                                                                                                                                                                                                                                                                                                                                                                                                                                             
E|-------------------------|-----------------------|
B|--------1--------1-------|-----------------------|
G|-------------------------|------0--------0-------|
D|-----2--------2--------2-|---2--------2--------2-|
A|--3--------3--------3----|2--------2--------2----|
E|-------------------------|-----------------------|

    
    F                                                                                                                                                                                                                                                                                                                                                                                                                                                                                                                                                                                             F                                                                                                                                                                                                                                                                                                                                                                                                                                                                                                                                                                                             
E|-------------------------|-----------------------|
B|-------------------------|-----------------------|
G|--------2--------2-------|------2--------2-------|
D|-----3--------3--------3-|---3--------3--------3-|
A|--3--------3--------3----|3--------3--------3----|
E|-------------------------|-----------------------|

    
    C                                                                                                                                                                                                                                                                                                                                                                                                                                                                                                                                                                                             C                                                                                                                                                                                                                                                                                                                                                                                                                                                                                                                                                                                             
E|-------------------------|-----------------------|
B|--------1--------1-------|-----------------------|
G|-------------------------|------0--------0-------|
D|-----2--------2--------2-|---2--------2--------2-|
A|--3--------3--------3----|2--------2--------2----|
E|-------------------------|-----------------------|

    
    F                                                                                                                                                                                                                                                                                                                                                                                                                                                                                                                                                                                             F                                                                                                                                                                                                                                                                                                                                                                                                                                                                                                                                                                                             
E|-------------------------|-----------------------|
B|-------------------------|-----------------------|
G|--2----------------------|-----------------------|
D|--3----------------------|------2--------2-------|
A|--3----------------------|---3--------3--------3-|
E|--1----------------------|5--------5--------5----|

    
                                                                                                                                                                                                                                                                                                                                                                                                                                                                                                                                                                                                                                                                                                                                                                                                                                                                                                                                                                                                                                                                                                                                                                                              
E|-------------------------|-----------------------|
B|-------------------------|-----------------------|
G|--------0--------0-------|-----------------------|
D|-----2--------2--------2-|------3--------3-------|
A|-------------------------|---3--------3----------|
E|--0--------0--------0----|1--------1--------0--1-|

    
                                                                                                                                                                                                                                                                                                                                                                                                                                                                                                                                                                                                                                                                                                                                                                                                                                                                                                                                                                                                                                                                                                                                                                                              
E|-------------------------|-----------------------|
B|-------------------------|-----------------------|
G|-------------------------|-----------------------|
D|--------0--------0-------|------2--------2-------|
A|-----2--------2--------2-|---3--------3--------3-|
E|--3--------3--------3----|5--------5--------5----|

    
                                                                                                                                                                                                                                                                                                                                                                                                                                                                                                                                                                                                                                                                                                                                                                                                                                                                                                                                                                                                                                                                                                                                                                                              
E|-------------------------|-----------------------|
B|-------------------------|-----------------------|
G|--------0--------0-------|-----------------------|
D|-----2--------2--------2-|------3--------3-------|
A|-------------------------|---3--------3----------|
E|--0--------0--------0----|1--------1--------0--1-|

    
                                                                                                                                                                                                                                                                                                                                                                                                                                                                                                                                                                                                                                                                                                                                                                                                                                                                                                                                                                                                                                                                                                                                                                                              
E|-------------------------|-----------------------|
B|-------------------------|-----------------------|
G|-------------------------|------2--------2-------|
D|--------0--------0-------|---3--------3--------3-|
A|-----2--------2-----0--2-|3--------3--------3----|
E|--3--------3-------------|-----------------------|

    
                                                                                                                                                                                                                                                                                                                                                                                                                                                                                                                                                                                                                                                                                                                                                                                                                                                                                                                                                                                                                                                                                                                                                                                              
E|-------------------------|-----------------------|
B|--------1--------1-------|-----------------------|
G|-------------------------|------0--------0-------|
D|-----2--------2--------2-|---2--------2--------2-|
A|--3--------3--------3----|2--------2--------2----|
E|-------------------------|-----------------------|

    
                                                                                                                                                                                                                                                                                                                                                                                                                                                                                                                                                                                                                                                                                                                                                                                                                                                                                                                                                                                                                                                                                                                                                                                              
E|-------------------------|-----------------------|
B|-------------------------|-----------------------|
G|--------2--------2-------|------2--------2-------|
D|-----3--------3--------3-|---3--------3--------3-|
A|--3--------3--------3----|3--------3--------3----|
E|-------------------------|-----------------------|

    
                                                                                                                                                                                                                                                                                                                                                                                                                                                                                                                                                                                                                                                                                                                                                                                                                                                                                                                                                                                                                                                                                                                                                                                              
E|-------------------------|-----------------------|
B|--------1--------1-------|-----------------------|
G|-------------------------|------0--------0-------|
D|-----2--------2--------2-|---2--------2--------2-|
A|--3--------3--------3----|2--------2--------2----|
E|-------------------------|-----------------------|

    
                                                                                                                                                                                                                                                                                                                                                                                                                                                                                                                                                                                                 
E|-------------------------|
B|-------------------------|
G|--2----------------------|
D|--3----------------------|
A|--3----------------------|
E|--1----------------------|

    
    C                                                                                                                                                                                                                                                                                                                                                                                                                                                                                                                                                                                             C                                                                                                                                                                                                                                                                                                                                                                                                                                                                                                                                                                                             
E|--0-----0--0-----0--0--0-|0-----0--0-----0--0--0-|
B|--1-----1--1-----1--1--1-|1-----1--1-----1--1--1-|
G|--0-----0--0-----0--0--0-|0-----0--0-----0--0--0-|
D|--2-----2--2-----2--2--2-|2-----2--2-----2--2--2-|
A|--3-----3--3-----3--3--3-|3-----3--3-----3--3--3-|
E|-------------------------|-----------------------|

    
    Am                                                                                                                                                                                                                                                                                                                                                                                                                                                                                                                                                                                             Am                                                                                                                                                                                                                                                                                                                                                                                                                                                                                                                                                                                             
E|--0-----0--0-----0--0--0-|0-----0--0-----0--0--0-|
B|--1-----1--1-----1--1--1-|1-----1--1-----1--1--1-|
G|--2-----2--2-----2--2--2-|2-----2--2-----2--2--2-|
D|--2-----2--2-----2--2--2-|2-----2--2-----2--2--2-|
A|--0-----0--0-----0--0--0-|0-----0--0-----0--0--0-|
E|-------------------------|-----------------------|

    
    Dm                                                                                                                                                                                                                                                                                                                                                                                                                                                                                                                                                                                             Dm                                                                                                                                                                                                                                                                                                                                                                                                                                                                                                                                                                                             
E|--1-----1--1-----1--1--1-|1-----1--1-----1--1--1-|
B|--3-----3--3-----3--3--3-|3-----3--3-----3--3--3-|
G|--2-----2--2-----2--2--2-|2-----2--2-----2--2--2-|
D|--0-----0--0-----0--0--0-|0-----0--0-----0--0--0-|
A|--0-----0--0-----0--0--0-|0-----0--0-----0--0--0-|
E|-------------------------|-----------------------|

    
    G                                                                                                                                                                                                                                                                                                                                                                                                                                                                                                                                                                                             G                                                                                                                                                                                                                                                                                                                                                                                                                                                                                                                                                                                             
E|--3-----3--3-----3--3--3-|3--3--3--3-----3--3--3-|
B|--3-----3--3-----3--3--3-|3--3--3--3-----3--3--3-|
G|--0-----0--0-----0--0--0-|0--0--0--0-----0--0--0-|
D|--0-----0--0-----0--0--0-|0--0--0--0-----0--0--0-|
A|--2-----2--2-----2--2--2-|2--2--2--2-----2--2--2-|
E|--3-----3--3-----3--3--3-|3--3--3--3-----3--3--3-|

    
                                                                                                                                                                                                                                                                                                                                                                                                                                                                                                                                                                                                                                                                                                                                                                                                                                                                                                                                                                                                                                                                                                                                                                                              
E|--0-----0--0-----0--0--0-|0-----0--0-----0--0--0-|
B|--1-----1--1-----1--1--1-|1-----1--1-----1--1--1-|
G|--0-----0--0-----0--0--0-|0-----0--0-----0--0--0-|
D|--2-----2--2-----2--2--2-|2-----2--2-----2--2--2-|
A|--3-----3--3-----3--3--3-|3-----3--3-----3--3--3-|
E|-------------------------|-----------------------|

    
                                                                                                                                                                                                                                                                                                                                                                                                                                                                                                                                                                                                                                                                                                                                                                                                                                                                                                                                                                                                                                                                                                                                                                                              
E|--0-----0--0-----0--0--0-|0-----0--0-----0--0--0-|
B|--1-----1--1-----1--1--1-|1-----1--1-----1--1--1-|
G|--2-----2--2-----2--2--2-|2-----2--2-----2--2--2-|
D|--2-----2--2-----2--2--2-|2-----2--2-----2--2--2-|
A|--0-----0--0-----0--0--0-|0-----0--0-----0--0--0-|
E|-------------------------|-----------------------|

    
                                                                                                                                                                                                                                                                                                                                                                                                                                                                                                                                                                                                                                                                                                                                                                                                                                                                                                                                                                                                                                                                                                                                                                                              
E|--1-----1--1-----1--1--1-|1-----1--1-----1--1--1-|
B|--3-----3--3-----3--3--3-|3-----3--3-----3--3--3-|
G|--2-----2--2-----2--2--2-|2-----2--2-----2--2--2-|
D|--0-----0--0-----0--0--0-|0-----0--0-----0--0--0-|
A|--0-----0--0-----0--0--0-|0-----0--0-----0--0--0-|
E|-------------------------|-----------------------|

    
                                                                                                                                                                                                                                                                                                                                                                                                                                                                                                                                                                                                                                                                                                                                                                                                                                                                                                                                                                                                                                                                                                                                                                                              
E|--3-----3--3-----3--3--3-|3--3--3--3-----3--3--3-|
B|--3-----3--3-----3--3--3-|3--3--3--3-----3--3--3-|
G|--0-----0--0-----0--0--0-|0--0--0--0-----0--0--0-|
D|--0-----0--0-----0--0--0-|0--0--0--0-----0--0--0-|
A|--2-----2--2-----2--2--2-|2--2--2--2-----2--2--2-|
E|--3-----3--3-----3--3--3-|3--3--3--3-----3--3--3-|

    
                                                                                                                                                                                                                                                                                                                                                                                                                                                                                                                                                                                                                                                                                                                                                                                                                                                                                                                                                                                                                                                                                                                                                                                              
E|--1--1--1--1--1--1--1--1-|0--0--0--0--0--0--0--0-|
B|--1--1--1--1--1--1--1--1-|1--1--1--1--1--1--1--1-|
G|--2--2--2--2--2--2--2--2-|0--0--0--0--0--0--0--0-|
D|--3--3--3--3--3--3--3--3-|2--2--2--2--2--2--2--2-|
A|--3--3--3--3--3--3--3--3-|3--3--3--3--3--3--3--3-|
E|--1--1--1--1--1--1--1--1-|-----------------------|

    
                                                                                                                                                                                                                                                                                                                                                                                                                                                                                                                                                                                                                                                                                                                                                                                                                                                                                                                                                                                                                                                                                                                                                                                              
E|--0--0--0--0--0--------1-|---1--1--1--1--1--1--1-|
B|--0--0--0--0--0--------1-|---1--1--1--1--1--1--1-|
G|--0--0--0--0--0--------2-|---2--2--2--2--2--2--2-|
D|--2--2--2--2--2--------3-|---3--3--3--3--3--3--3-|
A|--2--2--2--2--2--------3-|---3--3--3--3--3--3--3-|
E|--0--0--0--0--0--------1-|---1--1--1--1--1--1--1-|

    
                                                                                                                                                                                                                                                                                                                                                                                                                                                                                                                                                                                                                                                                                                                                                                                                                                                                                                                                                                                                                                                                                                                                                                                              
E|--1--1--1--1--1--1--1--1-|0--0--0--0--0--0--0--0-|
B|--1--1--1--1--1--1--1--1-|1--1--1--1--1--1--1--1-|
G|--2--2--2--2--2--2--2--2-|0--0--0--0--0--0--0--0-|
D|--3--3--3--3--3--3--3--3-|2--2--2--2--2--2--2--2-|
A|--3--3--3--3--3--3--3--3-|3--3--3--3--3--3--3--3-|
E|--1--1--1--1--1--1--1--1-|-----------------------|

    
                                                                                                                                                                                                                                                                                                                                                                                                                                                                                                                                                                                                 
E|--0--0--0--0--0--0--0--1-|
B|--0--0--0--0--0--0--0--1-|
G|--0--0--0--0--0--0--0--2-|
D|--2--2--2--2--2--2--2--3-|
A|--2--2--2--2--2--2--2--3-|
E|--0--0--0--0--0--0--0--1-|

    
                                                                                                                                                                                                                                                                                                                                                                                                                                                                                                                                                                                                                                                                                                                                                                                                                                                                                                                                                                                                                                                                                                                                                                                              
E|-------------------------|-----------------------|
B|-------------------------|-----------------------|
G|--------0--------0-------|------0--------0-------|
D|-----2--------2--------2-|---2--------2--------2-|
A|--3--------3--------3----|3--------3--------3----|
E|-------------------------|-----------------------|

About Torino (album) : Torino is an album by the UK band Cinerama. It was released on July 2, 2002, on Manifesto Records. All tracks composed by David Gedge and Simon Cleave It had an affiliation to bands - Torino,Cinerama. Its music is influenced by genres - indie pop.

tabs and chords, guitar tabs, music transcription, music technology, deep learning, music information retrieval, transcribe into tabs & chords, chordify, music renditions, songsterr, reverbnation, tabulature, bollywood chords, ultimate guitar, yousician, guitar lessons, acoustic guitar, electric guitar, guitar tuner, 911 tabs