Guitar Tabs for Ami Chini Go Chini

(/) Slide Up  (\) Slide Down  (h) Hammer On  (p) Pull Off  (b) Bend (r) Release (v) Vibrato (x) Muted

Tabs & Chords
BPM : 156.0
Check Track 2 for Chord Positions 

       C#             D#m                     G#                         C#                      
E|-----------------------------------------------------------------------------------------------
B|--9-----8-----------8-----------------------------------------10-------8-----------------------
G|-----11-------10-------11-10----8-----------------------8-----------11----11-10----10-10-------
D|--------------------------------------------11----12-11----------------------------------------
A|-----------------------------------------------------------------------------------------------
E|--------------------------------------6-----------------------------------------------------9--

                      A#                         C#       G#                                     
E|-----------------------------------------------------------------------------------------------
B|-----------------------------------------------------------------------------------------------
G|--------------------------------10----------------------------------------------------------0--
D|-----------------------------------------------------------------------------------------------
A|--------------8-----8-----8--------8-----8-----8-----9--8--------------------8-----------------
E|-----11-11----------------------------------------------------11----11-11----------11-11-------

       C#                                                             F#             C#       
E|--------------------------------------------9--------------------10----------------------9--
B|--------------------------------------------------------------------------0-----------------
G|--------------------------------------------------------------------------------------------
D|-----------------------------------------------10----11----11-------8--------8--------------
A|-----11-11----11----11----8--9-----11-11-------------------------------------------11-------
E|--------------------------------------------------------------------------------------------

          G#                         C#                                           Fm    
E|--------------------------------------------------------------------------------------
B|--------------------------------------------------------------------------------------
G|--------------------------------11----------10-10-------------------------------------
D|--0-----------------------------------------------------------0-----------------------
A|-----------8-----------------------9--8-----------8-----9-----------------8-----8--8--
E|-----11-11-------12----11----6-----------------------------------11-12----------------

Guitar Tabs for Ami Chini Go Chini






       C#             D#m                     G#                         C#                      
E|-----4--------------6-----------------------4--------------------------4-----------------------
B|-----6--------------7-----------------------4--------------------------6-----------------------
G|-----6--------------8-----------------------5--------------------------6-----------------------
D|-----6--------------8-----------------------6--------------------------6-----------------------
A|-----4--------------6-----------------------6--------------------------4-----------------------
E|--------------------------------------------4--------------------------------------------------

                      A#                         C#       G#                                     
E|--------------------1--------------------------4--------4--------------------------------------
B|--------------------3--------------------------6--------4--------------------------------------
G|--------------------3--------------------------6--------5--------------------------------------
D|--------------------3--------------------------6--------6--------------------------------------
A|--------------------1--------------------------4--------6--------------------------------------
E|--------------------------------------------------------4--------------------------------------

       C#                                                             F#             C#       
E|-----4--------------------------------------------------------------2--------------4--------
B|-----6--------------------------------------------------------------2--------------6--------
G|-----6--------------------------------------------------------------3--------------6--------
D|-----6--------------------------------------------------------------4--------------6--------
A|-----4--------------------------------------------------------------4--------------4--------
E|--------------------------------------------------------------------2-----------------------

          G#                         C#                                           Fm    
E|--------4--------------------------4--------------------------------------------1-----
B|--------4--------------------------6--------------------------------------------1-----
G|--------5--------------------------6--------------------------------------------1-----
D|--------6--------------------------6--------------------------------------------3-----
A|--------6--------------------------4--------------------------------------------3-----
E|--------4-----------------------------------------------------------------------1-----

tabs and chords, guitar tabs, music transcription, music technology, deep learning, music information retrieval, transcribe into tabs & chords, chordify, music renditions, songsterr, reverbnation, tabulature, bollywood chords, ultimate guitar, yousician, guitar lessons, acoustic guitar, electric guitar, guitar tuner, 911 tabs