Amazing Grace (wendoffe) - Guitar Tabs

(/) Slide Up  (\) Slide Down  (h) Hammer On  (p) Pull Off  (b) Bend (r) Release (v) Vibrato (x) Muted

Tabs for Song : 
BPM : 60

Song lyrics here 
E|--0--------0--------0-----------------------3--0-----0--------------5p3---------
B|--1-----1--1----1------1------3p1-----------3--1--1---1--3--------3------3------
G|--0-----0-----0-----3-----3-----2--2--0-----0--2---2----------4-------------4---
D|--2-----------------------------3-----2--------2-----------5--------------------
A|--3-----3--3--------3-----------------3-----2--0-----0--------------------------
E|--------------------------------------------------------------------------------

E|--0--0--------0---------------1-------0-----3--------------------------0--
B|--1-----1-----------1------1----1-----1-----3-----------------1--------1--
G|--0--------0--3---------3--2----2-----0-----4--0-----------0-----0-----0--
D|--2------------------------3----1-----2-----------------3-----------3--2--
A|--3-----------3-----------------------3-----2------2\3-----------------3--
E|--------------------------------2-----------------------------------------

Song lyrics here 
E|--
B|--
G|--
D|--
A|--
E|--

Use manual mode to free up cursor. Paste any tab in acousterr tab maker and we'll play it !!!

About Amazing Grace - "Amazing Grace" is published in 1779, with words written in 1772 by the English poet and Newton wrote the words from personal experience . He grew up without any particular religious conviction, but his life's path was formed by a variety of twists and coincidences . He was pressed into service in the Royal Navy . After leaving the service, he became involved in the Atlantic slave trade . In 1748, a violent storm battered his vessel off the coast of County Donegal . Amazing Grace's most popular songs include - Amazing Grace. Amazing Grace's music is influenced by genre(s) - hymn.

tabs and chords, guitar tabs, music transcription, music technology, deep learning, music information retrieval, transcribe into tabs & chords, chordify, music renditions, songsterr, reverbnation, tabulature, bollywood chords, ultimate guitar, yousician, guitar lessons, acoustic guitar, electric guitar, guitar tuner, 911 tabs