Bass Tabs for Always Sick (more Official)

(/) Slide Up  (\) Slide Down  (h) Hammer On  (p) Pull Off  (b) Bend (r) Release (v) Vibrato (x) Muted

Tabs for Song : Always Sick
BPM : 148

Song lyrics here 
G|--------------------------------------------------
D|--------------------------------------------------
A|--8---8b8---8b7---7b0--0--6---6b6---6b5---5b0--0--
E|--------------------------------------------------

Song lyrics here 


G|--------------------------------------------------
D|--------------------------------------------------
A|--8---8b8---8b7---7b0--0--6---6b6---6b------------
E|--------------------------------------5--5--0--0--

G|--------------------------------------------------
D|--------------------------------------------------
A|--------------------------------------------------
E|--6-----6-----5-----5-----6-----6--12/5-----5-----

G|--------------------------------------------------
D|--------------------------------------------------
A|--------------------------------------------------
E|--6-----6-----5-----5-----6-----6-----3-----3-----
Repeat last section then:
G|--
D|--
A|--
E|--

Use manual mode to free up cursor. Paste any tab in acousterr tab maker and we'll play it !!!
tabs and chords, guitar tabs, music transcription, music technology, deep learning, music information retrieval, transcribe into tabs & chords, chordify, music renditions, songsterr, reverbnation, tabulature, bollywood chords, ultimate guitar, yousician, guitar lessons, acoustic guitar, electric guitar, guitar tuner, 911 tabs