Bass Tabs for Alrighty Aphrodite - Bass Tabs

(/) Slide Up  (\) Slide Down  (h) Hammer On  (p) Pull Off  (b) Bend (r) Release (v) Vibrato

Tabs for Song : Alrighty Afrodite Bass tab

Verse
G|--10-10----10-------9--9--9-----9--12-12----12-10-10-10-
D|--------------------------------------------------------
A|--9--9-----9--------8--8--8-----8--11-11----11-9--9--9--
E|--10-10----10-------9--9--9-----9--12-12----12-10-10-10-


G|--10-10----10/4--4--4--4-----9--9--9--9--
D|-----------------------------------------
A|--9--9------9/3--3--3--3-----8--8--8--8--
E|--10-10----10/4--4--4--4-----9--9--9--9--


Song lyrics here
G|--
D|--
A|--
E|--

Now supports capo and sound effects for vibrato/pull-off/hammer/bends etc !!! Checkout help section
tabs and chords, guitar tabs, music transcription, music technology, deep learning, music information retrieval, transcribe into tabs & chords, chordify, music renditions, songsterr, reverbnation, tabulature, bollywood chords, ultimate guitar, yousician, guitar lessons, acoustic guitar, electric guitar, guitar tuner, 911 tabs