Guitar Tabs for Al-mondega Bicho

(/) Slide Up  (\) Slide Down  (h) Hammer On  (p) Pull Off  (b) Bend (r) Release (v) Vibrato (x) Muted

Tabs for Song : 
BPM : 200

Song lyrics here
E|--------------------------------------------------------------------------------------------------------------------------------------------------------------------------------------------------------------------------------------------------------------------------------------------------------------------
B|--------------------------------------------------------------------------------------------------------------------------------------------------------------------------------------------------------------------------------------------------------------------------------------------------------------------
G|-----------------------------------------------------------------------------------------------------------------------------------2--2-----2--------------------------------------------------------------------------------------------------------------------------------------------------------------0--2-----
D|-----2--2-----2-----2--2--------2-----2--2-----2-----2--2--------2-----4--4-----4-----3--3-----3-----2--2-----2-----5--5-----5--0--------0--------2--2-----2-----2--2-----2-----------2--2-----2--------------------2--2-----2-----2--2-----2-----4--4-----4-----3--3-----3-----2--2-----2-----------0--2-----------
A|--0--------0-----0--------0--0-----0--------0-----0--------0--0-----2--------2-----1--------1-----0--------0-----3--------3--------------------2--------2-----0--------0--------3--0--------0--------3--3-----3--2--------2-----0--------0-----2--------2-----1--------1-----0--------0-----0--2--3--------------0--
E|-----------------------------------------------------------------------------------------------------------------------------------------------------------------------------1--------------------1--------1--------------------------------------------------------------------------------------------------------
esta parte é tocada duas vezes
E|--------------------------------------------------------------------------------------------------------------
B|--------------------------------------------------------------------------------------------------------------
G|--------------------------------------------------------------------------------------------------------------
D|-----2--2-----2-----5--5-----5-----2--2-----2-----5--5-----5-----2-----4--------------------2--2-----2-----2--
A|--0--------0-----3--------3-----0--------0-----3--------3-----0-----2--------3--3-----3--2--------2-----2-----
E|--------------------------------------------------------------------------1--------1--------------------------

alibab√°: acordes
E|--------------------------------------------------------------------------------------------------------------------------------------------------------------------------------------------------------
B|--------------------------------------------------------------------------------------------------------------------------------------------------------------------------------------------------------
G|--------------------2-----------------------2-----------2--------------------------------------------------------------2-----------2-----------------------------------------------2--------------------
D|--------2-----0--4-----4--------2-----0--4-----4--0--4-----4--0--------2-----------2-----------2-----------2-----0--4-----4--0--4-----4--------2-----------2-----------------0--4-----4--------2--------
A|--0--3-----3--------------0--3-----3-----------------------------0--4-----4--0--4-----4--0--4-----4--0--4-----4--------------------------0--4-----4--0--4-----4--------2-----------------0--4-----4--0--
E|-----------------------------------------------------------------------------------------------------------------------------------------------------------------0--4-----4-----------------------------

E|-----------------------------------------------------------------------------------------
B|-----------------------------------------------------------------------------------------
G|--------2-----------2-----------0-----------0-----------2-----------2-----------0--------
D|-----2-----2-----2-----2-----0-----0-----0-----0-----2-----2-----2-----2-----0-----0-----
A|--0-----------0-----------------------------------0-----------0--------------------------
E|--------------------------3-----------3-----------------------------------3-----------3--

E|-----------------------------------------------------------------------------------------------------------------------------------------------------------------------------------------------------------------
B|-----------------------------------------------------------------------------------------------------------------------------------------------------------------------------------------------------------------
G|-----------------------------------------------------------------------------------------------------------------------------------------------------------------------------------------------------------------
D|-----------------------------------------------------------------------------------------------------------------------------------------------------------------------------------------------------------------
A|--0--0--0--0--0--0--0--0--0--0-----------------------------------------------------------------------------------------------0--3--0-----0--3--0--------2-----------2--------0--3--0-----0--3--0--------2--------
E|--------------------------------3--3--3--3--3--3--3--3--3--3--1--1--1--1--1--1--1--1--1--1--0--0--0--0--0--0--0--0--0--0--1-----------1-----------0--4-----4--0--4-----4--1-----------1-----------0--4-----4--0--

E|--
B|--
G|--
D|--
A|--
E|--

tabs and chords, guitar tabs, music transcription, music technology, deep learning, music information retrieval, transcribe into tabs & chords, chordify, music renditions, songsterr, reverbnation, tabulature, bollywood chords, ultimate guitar, yousician, guitar lessons, acoustic guitar, electric guitar, guitar tuner, 911 tabs