Bass Tabs for All The People Said Amen

(/) Slide Up  (\) Slide Down  (h) Hammer On  (p) Pull Off  (b) Bend (r) Release (v) Vibrato (x) Muted

Tabs for Song : 
BPM : 200

INTRO 
G|--------------------------------------------------------------------------
D|--------------------------------------------------------------------------
A|--------------------------------------------------------------------------
E|--------------------------------------------------------------------------

VERSE 1
G|--------------------------------------------------------------------------
D|--------------------------------------------------------------------------
A|--------------------------------------------------------------------------
E|--------------------------------------------------------------------------

CHORUS
    And  all the   people said   amen      whoa        And all the    people said    amen
G|--------------------------------------------------------------------------------------------------------------------------------------------------------------------------
D|--------------------------------------------------------------------------------------------------------------------------------------------------------------------------
A|-----------------5--5-----------------------2--------3--3--------------------------5--5--5--5--2--------------------------------------------------------------------------
E|--3-----3--------------3--3-----3--------5--------------------------3--3--------------------------------------------------------------------------------------------------

    Give thanks to the   Lord for His   love never  ends     And   all the  people said    amen
G|-----------------------------------------------------------------------------------------------------------------------------------------------------------------------------
D|-----------------------------------------------------------------------------------------------------------------------------------------------------------------------------
A|--3-----3-----------------------2--------------------------2-----3--3-----5--5-----------3-----3-----------------------------------------------------------------------------
E|-----------------------3--3--5--------3-----2-----0--0--------------------------------------3-----3--------------------------------------------------------------------------

VERSE 2
    If you're rich or poor well it don't matter Weak or   strong you know   love is what we're   after
G|--------------------------------------------------------------------------------------------------------------------------------------------------
D|--------------------------------------------------------------------------------------------------------------------------------------------------
A|-----------------------------------------------3--3-----------------------5--5-----------------7--7--5--------------------------------------------
E|--------------------------------------------------------3--3--------------------------------------------------------------------------------------

    We're all   broken but we're all in this togeher      God knows we   stumble and   fall
G|--------------------------------------------------------------------------------------------------------------------------------------------------------------------------
D|--------------------------------5--5--------------------------------------------------------------------------------------------------------------------------------------
A|--3--3--------5-----------------------------5--5--7--7--------------------------------5--5--5--5--------------------------------------------------------------------------
E|--------------------------------------------------------5--5-----------3--3-----------------------------------------------------------------------------------------------

    And He   so loved   the world He sen His son to    save us  all
G|-----------------------------------------------------------------------------------------
D|-----------------------------------------------------------------------------------------
A|-----------7--7--------5--5--5--5-----------7--5-----------------------------------------
E|--5--5-----------------------------------------------7--------5--------------------------

CHORUS
    And all the people said amen whoa and all the people said amen
G|--------------------------------------------------------------------------
D|--------------------------------------------------------------------------
A|--------5--5--------------2--3--3--------5--5--5--2-----------------------
E|--3--3--------3--3--3--5-----------3--3-----------------------------------

    Give thanks to the Lord for His love never ends and all the people said amen
G|--------------------------------------------------------------------------------------
D|--------------------------------------------------------------------------------------
A|--3--3--------2--2--7--7--3--3--5--5--3-----3-----------------------------------------
E|--------3--3-----------------------------3-----3--3--3--3--3--------------------------

And all the people said amen
G|--------------------------------------------------------------------------
D|--------------------------------------------------------------------------
A|--------------------------------------------------------------------------
E|--------------------------------------------------------------------------

BRIDGE
    Blessed are the poor in spirit who are torn apart, blessed are the per-secuted and the pure in heart
G|--------------------------------------------------------------------------------------------------------------------------------------------------------------------------------------------------
D|--------------------------------------------------------------------------------------------------------------------------------------------------------------------------------------------------
A|--3--3--3--3--------------5--5--5--5--------------3--3--3--3--------------5--5--5--5--------------------------------------------------------------------------------------------------------------
E|--------------3--3--3--3--------------3--3--3--3--------------3--3--3--3--------------3--3--3--3--------------------------------------------------------------------------------------------------

    Blessed are the people hungry for another start For theirs is the kingdom the kingdom of God
G|--------------------------------------------------------------------------------------------------------------------------------------------------------------------------------------------
D|--------------------------------------------------------------------------------------------------------------------------------------------------------------------------------------------
A|--3--3--3--3--------------5--5--5--5-----------2--------------------------5--5--5--5--5--5--5--5--------------------------------------------------------------------------------------------
E|--------------3--3--3--3--------------0--2--3-----5--5--5--5--5--5--5--5--------------------------12\---------------------------------------------------------------------------------------

CHORUS
    And all the people said amen whoa And all the people said amen
G|--------------------------------------------------------------------------
D|--------------------------------------------------------------------------
A|--------------------------------------------------------------------------
E|--------------------------------------------------------------------------
    Give thanks to the Lord for His love never ends And all the people said amen
G|--------------------------------------------------------------------------
D|--------------------------------------------------------------------------
A|--------------------------------------------------------------------------
E|--------------------------------------------------------------------------

CHORUS
    And all the people said amen whoa And all the people said amen
G|--------------------------------------------------------------------------
D|--------------------------------------------------------------------------
A|--------------------------------------------------------------------------
E|--------------------------------------------------------------------------

Give thanks to the Lord for His love never ends And all the people said amen

G|-----
D|-----
A|-----
E|-----

ENDING
And all the people said amen
G|-----
D|-----
A|-----
E|-----
tabs and chords, guitar tabs, music transcription, music technology, deep learning, music information retrieval, transcribe into tabs & chords, chordify, music renditions, songsterr, reverbnation, tabulature, bollywood chords, ultimate guitar, yousician, guitar lessons, acoustic guitar, electric guitar, guitar tuner, 911 tabs