Guitar Tabs for All Of Me - John Legend Tabs

E|-----------------------------------------------------------------
B|-----------------------------------------------------------------
G|--4-----4-----4--5-----5-----5-----------------4-----4-----4-----
D|--------------------------------7-----7-----7--------------------
A|-----------------------------------------------------------------
E|-----------------------------------------------------------------


what would i do without your smart mouth
E|--------------------------------
B|-----0--0--0-----0--0-----------
G|--2-----------2--------0--0-----
D|--------------------------------
A|--------------------------------
E|--------------------------------

drawing me in and you kicking me out
E|-----------------------------------
B|-----0--0--0-----0-----------------
G|--2-----------2-----2--0--0--------
D|-----------------------------2-----
A|-----------------------------------
E|-----------------------------------


got my head spinning ,no kidding ,i cant pin you down
E|--------------------------------------------------------
B|-----------0--------------1-----------------------------
G|--4--4--------5-----4--0--------4--0--2--2--4--2--------
D|--------------------------------------------------2-----
A|--------------------------------------------------------
E|--------------------------------------------------------





tabs and chords, guitar tabs, music contests, music covers, songsterr, reverbnation, renditions, tabulature, bollywood chords, ultimate guitar, yousician, guitar lessons, torrins, fender, gibson, acoustic guitar, electric guitar, youtube covers, gootar, guitar tuner, A-Z tabs, 911 tabs