All My Little Words - The Magnetic Fields - Guitar Tabs

Guitarra Ac├║stica
    
    G                                                                                                                                                                                                                                                                                                                                                                                                                                                                                                                                                                                             G                                                                                                                                                                                                                                                                                                                                                                                                                                                                                                                                                                                             
E|--3--------------3--------3-----3-------|3--------------3--------------3-------|
B|--3-----3-----3--3-----3--3-----3-----3-|3-----3-----3--3-----3-----3--3-----3-|
G|--0-----0--0--0--0-----0--0--0--0--0--0-|0--0--0--0--0--0--0--0--0--0--0--0--0-|
D|--0-----0--0--0--0-----0--0--0--0--0--0-|0--0--0--0--0--0--0--0--0--0--0--0--0-|
A|--2-----2--2--2--2-----2--2--2--2--2--2-|2--2--2--2--2--2--2--2--2--2--2--2--2-|
E|--3-----3--3--3--3-----3--3--3--3--3--3-|3--3--3--3--3--3--3--3--3--3--3--3--3-|

    
    Em                                                                                                                                                                                                                                                                                                                                                                                                                                                                                                                                                                                             Em                                                                                                                                                                                                                                                                                                                                                                                                                                                                                                                                                                                             
E|--0--------------0--------0-----0-------|0--------------0--------------0-------|
B|--0-----0-----0--0-----0--0-----0-----0-|0-----0-----0--0-----0-----0--0-----0-|
G|--0-----0--0--0--0-----0--0--0--0--0--0-|0--0--0--0--0--0--0--0--0--0--0--0--0-|
D|--2-----2--2--2--2-----2--2--2--2--2--2-|2--2--2--2--2--2--2--2--2--2--2--2--2-|
A|--2-----2--2--2--2-----2--2--2--2--2--2-|2--2--2--2--2--2--2--2--2--2--2--2--2-|
E|--0-----0--0--0--0-----0--0--0--0--0--0-|0--0--0--0--0--0--0--0--0--0--0--0--0-|

    
    D                                                                                                                                                                                                                                                                                                                                                                                                                                                                                                                                                                                             D                                                                                                                                                                                                                                                                                                                                                                                                                                                                                                                                                                                             
E|--2--------------2--------2-----2-------|0--------------0--------0-----0-------|
B|--3--3--3-----3--3--3--3--3-----3-----3-|1--1--1-----1--1--1--1--1-----1-----1-|
G|--2--2--2--2--2--2--2--2--2--2--2--2--2-|0--0--0--0--0--0--0--0--0--0--0--0--0-|
D|--0--0--0--0--0--0--0--0--0--0--0--0--0-|2--2--2--2--2--2--2--2--2--2--2--2--2-|
A|--0--0--0--0--0--0--0--0--0--0--0--0--0-|3--3--3--3--3--3--3--3--3--3--3--3--3-|
E|----------------------------------------|--------------------------------------|

    
    G                                                                                                                                                                                                                                                                                                                                                                                                                                                                                                                                                                                             G                                                                                                                                                                                                                                                                                                                                                                                                                                                                                                                                                                                             
E|--3--------------3--------3-----3-------|3--------------3--------------3-------|
B|--3-----3-----3--3-----3--3-----3-----3-|3-----3-----3--3-----3-----3--3-----3-|
G|--0-----0--0--0--0-----0--0--0--0--0--0-|0--0--0--0--0--0--0--0--0--0--0--0--0-|
D|--0-----0--0--0--0-----0--0--0--0--0--0-|0--0--0--0--0--0--0--0--0--0--0--0--0-|
A|--2-----2--2--2--2-----2--2--2--2--2--2-|2--2--2--2--2--2--2--2--2--2--2--2--2-|
E|--3-----3--3--3--3-----3--3--3--3--3--3-|3--3--3--3--3--3--3--3--3--3--3--3--3-|

    
    G                                                                                                                                                                                                                                                                                                                                                                                                                                                                                                                                                                                             G                                                                                                                                                                                                                                                                                                                                                                                                                                                                                                                                                                                             
E|--3--------------3--------3-----3-------|3--------------3--------------3-------|
B|--3-----3-----3--3-----3--3-----3-----3-|3-----3-----3--3-----3-----3--3-----3-|
G|--0-----0--0--0--0-----0--0--0--0--0--0-|0--0--0--0--0--0--0--0--0--0--0--0--0-|
D|--0-----0--0--0--0-----0--0--0--0--0--0-|0--0--0--0--0--0--0--0--0--0--0--0--0-|
A|--2-----2--2--2--2-----2--2--2--2--2--2-|2--2--2--2--2--2--2--2--2--2--2--2--2-|
E|--3-----3--3--3--3-----3--3--3--3--3--3-|3--3--3--3--3--3--3--3--3--3--3--3--3-|

    
    Em                                                                                                                                                                                                                                                                                                                                                                                                                                                                                                                                                                                             Em                                                                                                                                                                                                                                                                                                                                                                                                                                                                                                                                                                                             
E|--0--------------0--------0-----0-------|0--------------0--------------0-------|
B|--0-----0-----0--0-----0--0-----0-----0-|0-----0-----0--0-----0-----0--0-----0-|
G|--0-----0--0--0--0-----0--0--0--0--0--0-|0--0--0--0--0--0--0--0--0--0--0--0--0-|
D|--2-----2--2--2--2-----2--2--2--2--2--2-|2--2--2--2--2--2--2--2--2--2--2--2--2-|
A|--2-----2--2--2--2-----2--2--2--2--2--2-|2--2--2--2--2--2--2--2--2--2--2--2--2-|
E|--0-----0--0--0--0-----0--0--0--0--0--0-|0--0--0--0--0--0--0--0--0--0--0--0--0-|

    
    D                                                                                                                                                                                                                                                                                                                                                                                                                                                                                                                                                                                             D                                                                                                                                                                                                                                                                                                                                                                                                                                                                                                                                                                                             
E|--2--------------2--------2-----2-------|0--------------0--------0-----0-------|
B|--3--3--3-----3--3--3--3--3-----3-----3-|1--1--1-----1--1--1--1--1-----1-----1-|
G|--2--2--2--2--2--2--2--2--2--2--2--2--2-|0--0--0--0--0--0--0--0--0--0--0--0--0-|
D|--0--0--0--0--0--0--0--0--0--0--0--0--0-|2--2--2--2--2--2--2--2--2--2--2--2--2-|
A|--0--0--0--0--0--0--0--0--0--0--0--0--0-|3--3--3--3--3--3--3--3--3--3--3--3--3-|
E|----------------------------------------|--------------------------------------|

    
    G                                                                                                                                                                                                                                                                                                                                                                                                                                                                                                                                                                                             G                                                                                                                                                                                                                                                                                                                                                                                                                                                                                                                                                                                             
E|--3--------------3--------3-----3-------|3--------------3--------------3-------|
B|--3-----3-----3--3-----3--3-----3-----3-|3-----3-----3--3-----3-----3--3-----3-|
G|--0-----0--0--0--0-----0--0--0--0--0--0-|0--0--0--0--0--0--0--0--0--0--0--0--0-|
D|--0-----0--0--0--0-----0--0--0--0--0--0-|0--0--0--0--0--0--0--0--0--0--0--0--0-|
A|--2-----2--2--2--2-----2--2--2--2--2--2-|2--2--2--2--2--2--2--2--2--2--2--2--2-|
E|--3-----3--3--3--3-----3--3--3--3--3--3-|3--3--3--3--3--3--3--3--3--3--3--3--3-|

    
    G                                                                                                                                                                                                                                                                                                                                                                                                                                                                                                                                                                                             G                                                                                                                                                                                                                                                                                                                                                                                                                                                                                                                                                                                             
E|--3--------------3--------3-----3-------|3--------------3--------------3-------|
B|--3-----3-----3--3-----3--3-----3-----3-|3-----3-----3--3-----3-----3--3-----3-|
G|--0-----0--0--0--0-----0--0--0--0--0--0-|0--0--0--0--0--0--0--0--0--0--0--0--0-|
D|--0-----0--0--0--0-----0--0--0--0--0--0-|0--0--0--0--0--0--0--0--0--0--0--0--0-|
A|--2-----2--2--2--2-----2--2--2--2--2--2-|2--2--2--2--2--2--2--2--2--2--2--2--2-|
E|--3-----3--3--3--3-----3--3--3--3--3--3-|3--3--3--3--3--3--3--3--3--3--3--3--3-|

    
    Em                                                                                                                                                                                                                                                                                                                                                                                                                                                                                                                                                                                             Em                                                                                                                                                                                                                                                                                                                                                                                                                                                                                                                                                                                             
E|--0--------------0--------0-----0-------|0--------------0--------------0-------|
B|--0-----0-----0--0-----0--0-----0-----0-|0-----0-----0--0-----0-----0--0-----0-|
G|--0-----0--0--0--0-----0--0--0--0--0--0-|0--0--0--0--0--0--0--0--0--0--0--0--0-|
D|--2-----2--2--2--2-----2--2--2--2--2--2-|2--2--2--2--2--2--2--2--2--2--2--2--2-|
A|--2-----2--2--2--2-----2--2--2--2--2--2-|2--2--2--2--2--2--2--2--2--2--2--2--2-|
E|--0-----0--0--0--0-----0--0--0--0--0--0-|0--0--0--0--0--0--0--0--0--0--0--0--0-|

    
    D                                                                                                                                                                                                                                                                                                                                                                                                                                                                                                                                                                                             D                                                                                                                                                                                                                                                                                                                                                                                                                                                                                                                                                                                             
E|--2--------------2--------2-----2-------|0--------------0--------0-----0-------|
B|--3--3--3-----3--3--3--3--3-----3-----3-|1--1--1-----1--1--1--1--1-----1-----1-|
G|--2--2--2--2--2--2--2--2--2--2--2--2--2-|0--0--0--0--0--0--0--0--0--0--0--0--0-|
D|--0--0--0--0--0--0--0--0--0--0--0--0--0-|2--2--2--2--2--2--2--2--2--2--2--2--2-|
A|--0--0--0--0--0--0--0--0--0--0--0--0--0-|3--3--3--3--3--3--3--3--3--3--3--3--3-|
E|----------------------------------------|--------------------------------------|

    
    G                                                                                                                                                                                                                                                                                                                                                                                                                                                                                                                                                                                             G                                                                                                                                                                                                                                                                                                                                                                                                                                                                                                                                                                                             
E|--3--------------3--------3-----3-------|3--------------3--------------3-------|
B|--3-----3-----3--3-----3--3-----3-----3-|3-----3-----3--3-----3-----3--3-----3-|
G|--0-----0--0--0--0-----0--0--0--0--0--0-|0--0--0--0--0--0--0--0--0--0--0--0--0-|
D|--0-----0--0--0--0-----0--0--0--0--0--0-|0--0--0--0--0--0--0--0--0--0--0--0--0-|
A|--2-----2--2--2--2-----2--2--2--2--2--2-|2--2--2--2--2--2--2--2--2--2--2--2--2-|
E|--3-----3--3--3--3-----3--3--3--3--3--3-|3--3--3--3--3--3--3--3--3--3--3--3--3-|

    
    D                                                                                                                                                                                                                                                                                                                                                                                                                                                                                                                                                                                             D                                                                                                                                                                                                                                                                                                                                                                                                                                                                                                                                                                                             
E|--2--------------2--------2-----2-------|0--------------0--------0-----0-------|
B|--3--3--3-----3--3--3--3--3-----3-----3-|1--1--1-----1--1--1--1--1-----1-----1-|
G|--2--2--2--2--2--2--2--2--2--2--2--2--2-|0--0--0--0--0--0--0--0--0--0--0--0--0-|
D|--0--0--0--0--0--0--0--0--0--0--0--0--0-|2--2--2--2--2--2--2--2--2--2--2--2--2-|
A|--0--0--0--0--0--0--0--0--0--0--0--0--0-|3--3--3--3--3--3--3--3--3--3--3--3--3-|
E|----------------------------------------|--------------------------------------|

    
    G                                                                                                                                                                                                                                                                                                                                                                                                                                                                                                                                                                                             G                                                                                                                                                                                                                                                                                                                                                                                                                                                                                                                                                                                             
E|--3--------------3--------3-----3-------|2--------------2--------2-----2-------|
B|--3-----3-----3--3-----3--3-----3-----3-|3--3--3-----3--3--3--3--3-----3-----3-|
G|--0--0--0--0--0--0--0--0--0--0--0--0--0-|2--2--2--2--2--2--2--2--2--2--2--2--2-|
D|--0--0--0--0--0--0--0--0--0--0--0--0--0-|0--0--0--0--0--0--0--0--0--0--0--0--0-|
A|--2--2--2--2--2--2--2--2--2--2--2--2--2-|0--0--0--0--0--0--0--0--0--0--0--0--0-|
E|--3--3--3--3--3--3--3--3--3--3--3--3--3-|--------------------------------------|

    
    C                                                                                                                                                                                                                                                                                                                                                                                                                                                                                                                                                                                             C                                                                                                                                                                                                                                                                                                                                                                                                                                                                                                                                                                                             
E|--0--------------0--------0-----0-------|3--------------3--------3-----3-------|
B|--1--1--1-----1--1--1--1--1-----1-----1-|3-----3-----3--3-----3--3-----3-----3-|
G|--0--0--0--0--0--0--0--0--0--0--0--0--0-|0--0--0--0--0--0--0--0--0--0--0--0--0-|
D|--2--2--2--2--2--2--2--2--2--2--2--2--2-|0--0--0--0--0--0--0--0--0--0--0--0--0-|
A|--3--3--3--3--3--3--3--3--3--3--3--3--3-|2--2--2--2--2--2--2--2--2--2--2--2--2-|
E|----------------------------------------|3--3--3--3--3--3--3--3--3--3--3--3--3-|

    
    D                                                                                                                                                                                                                                                                                                                                                                                                                                                                                                                                                                                             D                                                                                                                                                                                                                                                                                                                                                                                                                                                                                                                                                                                             
E|--2--------------2--------2-----2-------|0--------------0--------0-----0-------|
B|--3--3--3-----3--3--3--3--3-----3-----3-|1--1--1-----1--1--1--1--1-----1-----1-|
G|--2--2--2--2--2--2--2--2--2--2--2--2--2-|0--0--0--0--0--0--0--0--0--0--0--0--0-|
D|--0--0--0--0--0--0--0--0--0--0--0--0--0-|2--2--2--2--2--2--2--2--2--2--2--2--2-|
A|--0--0--0--0--0--0--0--0--0--0--0--0--0-|3--3--3--3--3--3--3--3--3--3--3--3--3-|
E|----------------------------------------|--------------------------------------|

    
    G                                                                                                                                                                                                                                                                                                                                                                                                                                                                                                                                                                                             G                                                                                                                                                                                                                                                                                                                                                                                                                                                                                                                                                                                             
E|--3--------------3--------3-----3-------|2--------------2--------2-----2-------|
B|--3-----3-----3--3-----3--3-----3-----3-|3--3--3-----3--3--3--3--3-----3-----3-|
G|--0--0--0--0--0--0--0--0--0--0--0--0--0-|2--2--2--2--2--2--2--2--2--2--2--2--2-|
D|--0--0--0--0--0--0--0--0--0--0--0--0--0-|0--0--0--0--0--0--0--0--0--0--0--0--0-|
A|--2--2--2--2--2--2--2--2--2--2--2--2--2-|0--0--0--0--0--0--0--0--0--0--0--0--0-|
E|--3--3--3--3--3--3--3--3--3--3--3--3--3-|--------------------------------------|

    
    C                                                                                                                                                                                                                                                                                                                                                                                                                                                                                                                                                                                             C                                                                                                                                                                                                                                                                                                                                                                                                                                                                                                                                                                                             
E|--0--------------0--------0-----0-------|3--------------3--------3-----3-------|
B|--1--1--1-----1--1--1--1--1-----1-----1-|3-----3-----3--3-----3--3-----3-----3-|
G|--0--0--0--0--0--0--0--0--0--0--0--0--0-|0--0--0--0--0--0--0--0--0--0--0--0--0-|
D|--2--2--2--2--2--2--2--2--2--2--2--2--2-|0--0--0--0--0--0--0--0--0--0--0--0--0-|
A|--3--3--3--3--3--3--3--3--3--3--3--3--3-|2--2--2--2--2--2--2--2--2--2--2--2--2-|
E|----------------------------------------|3--3--3--3--3--3--3--3--3--3--3--3--3-|

    
                                                                                                                                                                                                                                                                                                                                                                                                                                                                                                                                                                                                                                                                                                                                                                                                                                                                                                                                                                                                                                                                                                                                                                                              
E|--3--------------3--------3-----3-------|0--------------0--------0-----0-------|
B|--3-----3-----3--3-----3--3-----3-----3-|0-----0-----0--0-----0--0-----0-----0-|
G|--0--0--0--0--0--0--0--0--0--0--0--0--0-|0--0--0--0--0--0--0--0--0--0--0--0--0-|
D|--0--0--0--0--0--0--0--0--0--0--0--0--0-|2--2--2--2--2--2--2--2--2--2--2--2--2-|
A|--2--2--2--2--2--2--2--2--2--2--2--2--2-|2--2--2--2--2--2--2--2--2--2--2--2--2-|
E|--3--3--3--3--3--3--3--3--3--3--3--3--3-|0--0--0--0--0--0--0--0--0--0--0--0--0-|

    
                                                                                                                                                                                                                                                                                                                                                                                                                                                                                                                                                                                                                                                                                                                                                                                                                                                                                                                                                                                                                                                                                                                                                                                              
E|--0--------------0--------0-----0-------|3--------------3--------3-----3-------|
B|--0-----0-----0--0-----0--0-----0-----0-|3-----3-----3--3-----3--3-----3-----3-|
G|--0--0--0--0--0--0--0--0--0--0--0--0--0-|0--0--0--0--0--0--0--0--0--0--0--0--0-|
D|--2--2--2--2--2--2--2--2--2--2--2--2--2-|0--0--0--0--0--0--0--0--0--0--0--0--0-|
A|--2--2--2--2--2--2--2--2--2--2--2--2--2-|2--2--2--2--2--2--2--2--2--2--2--2--2-|
E|--0--0--0--0--0--0--0--0--0--0--0--0--0-|3--3--3--3--3--3--3--3--3--3--3--3--3-|

    
                                                                                                                                                                                                                                                                                                                                                                                                                                                                                                                                                                                                                                                                                                                                                                                                                                                                                                                                                                                                                                                                                                                                                                                              
E|--3--------------3--------3-----3-------|0--------------0--------0-----0-------|
B|--3-----3-----3--3-----3--3-----3-----3-|0-----0-----0--0-----0--0-----0-----0-|
G|--0--0--0--0--0--0--0--0--0--0--0--0--0-|0--0--0--0--0--0--0--0--0--0--0--0--0-|
D|--0--0--0--0--0--0--0--0--0--0--0--0--0-|2--2--2--2--2--2--2--2--2--2--2--2--2-|
A|--2--2--2--2--2--2--2--2--2--2--2--2--2-|2--2--2--2--2--2--2--2--2--2--2--2--2-|
E|--3--3--3--3--3--3--3--3--3--3--3--3--3-|0--0--0--0--0--0--0--0--0--0--0--0--0-|

    
                                                                                                                                                                                                                                                                                                                                                                                                                                                                                                                                                                                                                                                                                                                                                                                                                                                                                                                                                                                                                                                                                                                                                                                              
E|--0--------------0--------0-----0-------|2--------------2--------2-----2-------|
B|--0-----0-----0--0-----0--0-----0-----0-|3--3--3-----3--3--3--3--3-----3-----3-|
G|--0--0--0--0--0--0--0--0--0--0--0--0--0-|2--2--2--2--2--2--2--2--2--2--2--2--2-|
D|--2--2--2--2--2--2--2--2--2--2--2--2--2-|0--0--0--0--0--0--0--0--0--0--0--0--0-|
A|--2--2--2--2--2--2--2--2--2--2--2--2--2-|0--0--0--0--0--0--0--0--0--0--0--0--0-|
E|--0--0--0--0--0--0--0--0--0--0--0--0--0-|--------------------------------------|

    
    C                                                                                                                                                                                                                                                                                                                                                                                                                                                                                                                                                                                             C                                                                                                                                                                                                                                                                                                                                                                                                                                                                                                                                                                                             
E|--0--------------0--------0-----0-------|3--------------3--------3-----3-------|
B|--1--1--1-----1--1--1--1--1-----1-----1-|3-----3-----3--3-----3--3-----3-----3-|
G|--0--0--0--0--0--0--0--0--0--0--0--0--0-|0--0--0--0--0--0--0--0--0--0--0--0--0-|
D|--2--2--2--2--2--2--2--2--2--2--2--2--2-|0--0--0--0--0--0--0--0--0--0--0--0--0-|
A|--3--3--3--3--3--3--3--3--3--3--3--3--3-|2--2--2--2--2--2--2--2--2--2--2--2--2-|
E|----------------------------------------|3--3--3--3--3--3--3--3--3--3--3--3--3-|

    
                                                                                                                                                                                                                                                                                                                                                                                                                                                                                                                                                                                                                                                                                                                                                                                                                                                                                                                                                                                                                                                                                                                                                                                              
E|--3--------------3--------3-----3-------|3--------------3--------3-----3-------|
B|--3-----3-----3--3-----3--3-----3-----3-|3-----3-----3--3-----3--3-----3-----3-|
G|--0--0--0--0--0--0--0--0--0--0--0--0--0-|0--0--0--0--0--0--0--0--0--0--0--0--0-|
D|--0--0--0--0--0--0--0--0--0--0--0--0--0-|0--0--0--0--0--0--0--0--0--0--0--0--0-|
A|--2--2--2--2--2--2--2--2--2--2--2--2--2-|2--2--2--2--2--2--2--2--2--2--2--2--2-|
E|--3--3--3--3--3--3--3--3--3--3--3--3--3-|3--3--3--3--3--3--3--3--3--3--3--3--3-|

    
                                                                                                                                                                                                                                                                                                                                                                                                                                                                                                                                                                                                                                                                                                                                                                                                                                                                                                                                                                                                                                                                                                                                                                                              
E|--3--------------3--------3-----3-------|0--------------0--------0-----0-------|
B|--3-----3-----3--3-----3--3-----3-----3-|0-----0-----0--0-----0--0-----0-----0-|
G|--0--0--0--0--0--0--0--0--0--0--0--0--0-|0--0--0--0--0--0--0--0--0--0--0--0--0-|
D|--0--0--0--0--0--0--0--0--0--0--0--0--0-|2--2--2--2--2--2--2--2--2--2--2--2--2-|
A|--2--2--2--2--2--2--2--2--2--2--2--2--2-|2--2--2--2--2--2--2--2--2--2--2--2--2-|
E|--3--3--3--3--3--3--3--3--3--3--3--3--3-|0--0--0--0--0--0--0--0--0--0--0--0--0-|

    
                                                                                                                                                                                                                                                                                                                                                                                                                                                                                                                                                                                                                                                                                                                                                                                                                                                                                                                                                                                                                                                                                                                                                                                              
E|--0--------------0--------0-----0-------|2--------------2--------2-----2-------|
B|--0-----0-----0--0-----0--0-----0-----0-|3--3--3-----3--3--3--3--3-----3-----3-|
G|--0--0--0--0--0--0--0--0--0--0--0--0--0-|2--2--2--2--2--2--2--2--2--2--2--2--2-|
D|--2--2--2--2--2--2--2--2--2--2--2--2--2-|0--0--0--0--0--0--0--0--0--0--0--0--0-|
A|--2--2--2--2--2--2--2--2--2--2--2--2--2-|0--0--0--0--0--0--0--0--0--0--0--0--0-|
E|--0--0--0--0--0--0--0--0--0--0--0--0--0-|--------------------------------------|

    
    C                                                                                                                                                                                                                                                                                                                                                                                                                                                                                                                                                                                             C                                                                                                                                                                                                                                                                                                                                                                                                                                                                                                                                                                                             
E|--0--------------0--------0-----0-------|3--------------3--------3-----3-------|
B|--1--1--1-----1--1--1--1--1-----1-----1-|3-----3-----3--3-----3--3-----3-----3-|
G|--0--0--0--0--0--0--0--0--0--0--0--0--0-|0--0--0--0--0--0--0--0--0--0--0--0--0-|
D|--2--2--2--2--2--2--2--2--2--2--2--2--2-|0--0--0--0--0--0--0--0--0--0--0--0--0-|
A|--3--3--3--3--3--3--3--3--3--3--3--3--3-|2--2--2--2--2--2--2--2--2--2--2--2--2-|
E|----------------------------------------|3--3--3--3--3--3--3--3--3--3--3--3--3-|

    
                                                                                                                                                                                                                                                                                                                                                                                                                                                                                                                                                                                                                                                                                                                                                                                                                                                                                                                                                                                                                                                                                                                                                                                              
E|--3--------------3--------3-----3-------|2--------------2--------2-----2-------|
B|--3-----3-----3--3-----3--3-----3-----3-|3--3--3-----3--3--3--3--3-----3-----3-|
G|--0--0--0--0--0--0--0--0--0--0--0--0--0-|2--2--2--2--2--2--2--2--2--2--2--2--2-|
D|--0--0--0--0--0--0--0--0--0--0--0--0--0-|0--0--0--0--0--0--0--0--0--0--0--0--0-|
A|--2--2--2--2--2--2--2--2--2--2--2--2--2-|0--0--0--0--0--0--0--0--0--0--0--0--0-|
E|--3--3--3--3--3--3--3--3--3--3--3--3--3-|--------------------------------------|

    
    C                                                                                                                                                                                                                                                                                                                                                                                                                                                                                                                                                                                             C                                                                                                                                                                                                                                                                                                                                                                                                                                                                                                                                                                                             
E|--0--------------0--------0-----0-------|3--------------3--------3-----3-------|
B|--1--1--1-----1--1--1--1--1-----1-----1-|3-----3-----3--3-----3--3-----3-----3-|
G|--0--0--0--0--0--0--0--0--0--0--0--0--0-|0--0--0--0--0--0--0--0--0--0--0--0--0-|
D|--2--2--2--2--2--2--2--2--2--2--2--2--2-|0--0--0--0--0--0--0--0--0--0--0--0--0-|
A|--3--3--3--3--3--3--3--3--3--3--3--3--3-|2--2--2--2--2--2--2--2--2--2--2--2--2-|
E|----------------------------------------|3--3--3--3--3--3--3--3--3--3--3--3--3-|

    
    D                                                                                                                                                                                                                                                                                                                                                                                                                                                                                                                                                                                             D                                                                                                                                                                                                                                                                                                                                                                                                                                                                                                                                                                                             
E|--2--------------2--------2-----2-------|0--------------0--------0-----0-------|
B|--3--3--3-----3--3--3--3--3-----3-----3-|1--1--1-----1--1--1--1--1-----1-----1-|
G|--2--2--2--2--2--2--2--2--2--2--2--2--2-|0--0--0--0--0--0--0--0--0--0--0--0--0-|
D|--0--0--0--0--0--0--0--0--0--0--0--0--0-|2--2--2--2--2--2--2--2--2--2--2--2--2-|
A|--0--0--0--0--0--0--0--0--0--0--0--0--0-|3--3--3--3--3--3--3--3--3--3--3--3--3-|
E|----------------------------------------|--------------------------------------|

About 69 Love Songs : 69 Love Songs is a three-volume concept album composed of 69 love songs . The Magnetic Fields frontman Stephin Merritt wrote the album . The album was originally conceived as a music revue . Stephin Merritt was sitting in a gay piano bar in Manhattan, listening to the pianist's interpretations of Stephen Sondheim . Band member Claudia Gonson claims Merritt wrote songs hanging around bars in New York City Its music is influenced by genres - indie pop , indie folk , synthpop , chamber pop.

tabs and chords, guitar tabs, music transcription, music technology, deep learning, music information retrieval, transcribe into tabs & chords, chordify, music renditions, songsterr, reverbnation, tabulature, bollywood chords, ultimate guitar, yousician, guitar lessons, acoustic guitar, electric guitar, guitar tuner, 911 tabs