Bass Tabs for All My Hope

(/) Slide Up  (\) Slide Down  (h) Hammer On  (p) Pull Off  (b) Bend (r) Release (v) Vibrato (x) Muted

Tabs for Song : 
BPM : 90
INTRO
G|-----
D|-----
A|-----
E|-----

VERSE 1
    I've been  held by the  Savior               I've felt fire from above
G|-----------------------------------------------------------------------------------
D|--------------------------11----11-10----------------10----------------------------
A|--11----------11----------------------13-11----11-13----------------------11-------
E|--------------------------------------------------------11----------11-13----13-11-

    I've been  down to the  river        I ain't the same a prodigal returned
G|-----------------------------------------------------------------------------------------
D|--------13----15-------------------------------------------------------------------6-----
A|--15----------------------4--------5-----6-----6--6-----------------4--5--6--6--8-----8--
E|-----------------------------4--------------6--------4-----------------------------------

 Chorus 1A  
    All my   hope is  in Je-sus   Thank God that yesterday's gone
G|--------------------------------------------------------------------
D|--------------------------------------------------------------------
A|--------------------3--4-----4--------6--------------------6-----6--
E|--4--------4-----6-----------------------------4-----1--------------
  
    All my  sins are for - given     I've been  washed by   the blood
G|--------------------------------------------------------------------------------
D|--------------------------------------------------------------------------------
A|--------------------3-----4-----5--6-----------6-----------6-----6--------------
E|--4--------4-----6--------------------6--------------4--------------------------

  VERSE 2
    I'm no stranger to prison I've worn shackles and chains
G|--------------------------------------------------------
D|--------11-11-10-------------10-------------------------
A|--11-11----------13-11-11-13----------------11----------
E|--------------------------------11-11-11-13----13-11----


But I've been freed and for-given And I'm not going back I'll never be the same That's why I sing
G|--------------------------------------
D|-----13-15-------------------6--------
A|--15-------4-----5--6--6--8-----8-----
E|--------------4-----------------------

 Chorus 1A  
   All my hope is  in Je-sus  Thank God that yesterday's gone
G|-----------------------------------------------------------------
D|-----------------------------------------------------------------
A|--------------3--4--4--6--------------------------------6-----6--
E|--4--4--6--------------------------4--------1--------------------
  
  All my sins are for - given I've been washed by the blood
G|-----------------------------------------------
D|-----------------------------------------------
A|-----------------3-----4--5--6-----6-----6--6--
E|--4-----4--6--------------------6-----4--------

BRIDGE
There's a kind of thing that just breaks a man Break him down to his knees
G|-----
D|-----
A|-----
E|-----

God I've been broken more than a time or two Then He picked me up and showed me
G|-----
D|-----
A|-----
E|-----

What it means to be a man come on and sing
G|-----
D|-----
A|-----
E|-----

CHORUS 1B
All my hope is in Jesus Thank God that yesterday's gone
G|-----------------------------------------------
D|-----------------------------------------------
A|-----------2--3--3--5--------5--5--4--3--------
E|--3--3--5--------------3--0--------------3-----

All my sins are for-given Oh I've, I've been washed by the blood
G|-----------------------------------------
D|-----------------------------------------
A|--------2--3--4--5-----5--5-----5--5-----
E|--3--5--------------5--------3-----------

Use manual mode to free up cursor. Paste any tab in acousterr tab maker and we'll play it !!!

tabs and chords, guitar tabs, music transcription, music technology, deep learning, music information retrieval, transcribe into tabs & chords, chordify, music renditions, songsterr, reverbnation, tabulature, bollywood chords, ultimate guitar, yousician, guitar lessons, acoustic guitar, electric guitar, guitar tuner, 911 tabs