Ukulele Tabs for All I Want For Christmas Uku

(/) Slide Up  (\) Slide Down  (h) Hammer On  (p) Pull Off  (b) Bend (r) Release (v) Vibrato


Tabs for Song : 

(/) Slide Up  (\) Slide Down  (h) Hammer On  (p) Pull Off  (b) Bend (r) Release (v) Vibrato


Tabs for Song : 

Song lyrics here
A|--------2--2--2---3h2---------------------3/5--5-3--22--2---3h2--------0--3--3-----5---5/7--5--3--0---
E|------0-----------------3--3/5-----3------0/---------------------3-----1------------------------------
C|--0---------------------------------------0/---------------------------0------------------------------
G|------------------------------------------0/---------------------------2------------------------------

A|-----3--3---5/7--5--3--------------14-------3--5--2---3h2--2--3--0--3------------7\5--3--2--------------
E|--4--------------------5--------15----------0--------------------0-----4--4------0\---------4--6--3-----
C|--5--------------------------15-------------0--------------------0---------------0\---------5-----------
G|--0-----------------------------------------0--------------------2---------------2\---------------------

A|-----------10-10-8--7-----7--7--7--7-----12\------7--5---------------5-----------5---5/7--7-----------------
E|-----3---3/8-----5--5-----5--5--5--5--------------5-----8---------4--4--------4--------------8--8--8--8--8--
C|-----0-----10----7--7-----7--7--7--7--------------5--------7------5--5-----5--------------------------------
G|-----0-----------6--6-----6--6--6--6--------------5---------------------------------------------------------

A|--------------------------------------------------------------------------5--5--5--5--5--5--------------5--5--
E|--------------------------------------3--3--3--3--3--3--5--5--5--5--5--5--5--5--5--5--5--5--3--3--3--3--3--3--
C|--------------------------------------4--4--4--4--4--4--4--4--4--4--4--4--5--5--5--5--5--5--2--2--2--2--2--2--
G|--------------------------------------5--5--5--5--5--5--5--5--5--5--5--5--5--5--5--5--5--5--4--4--4--4--4--4--

A|--
E|--
C|--
G|--

Song lyrics here

Add more lines by placing cursor below and adding notes


G|--

Song lyrics here
A|--
E|--
C|--
G|--

Add more lines by placing cursor below and adding notes



Song lyrics here

Add more lines by placing cursor below and adding notes


G|--

Song lyrics here
A|--
E|--
C|--
G|--

Add more lines by placing cursor below and adding notes
tabs and chords, guitar tabs, music transcription, music technology, deep learning, music information retrieval, transcribe into tabs & chords, chordify, music renditions, songsterr, reverbnation, tabulature, bollywood chords, ultimate guitar, yousician, guitar lessons, acoustic guitar, electric guitar, guitar tuner, 911 tabs