Guitar Tabs for All i can think about is you

Tabs for song : All can think about is you

Everything is upside down...
e|-------------------------------------------------------------------------
B|-------------------------------------------------------------------------
G|--5-5-5-5--5-5-5-5--5-5-5-5--5-5-5------5-5-5-5--5-5-5-5--5-5-5-5--5-----
D|-------------------------------------------------------------------------
A|-------------------------------------------------------------------------
E|-------------------------------------------------------------------------

The whole world on a flight path...
e|-------------------------------------------------------------------------------
B|--13---------------------------------------------------------------------------
G|--------------------5-5-5-5--7-7-7------5-5-5-5--5-5-5-5--5-5-5-5--7-7-7-7-----
D|-------------------------------------------------------------------------------
A|-------------------------------------------------------------------------------
E|----------------------------------------------------------------------------------

I wonder where they'll go, ah...
e|----------------------------------------------------------------------------------
B|----------------------------------------------------------------------------------
G|--5-5-5-5--5-5-5-5--5-5-5-5--5-5-5-5/----10-10-5-5--5-5-5-5--5-5-5-5--7-7-7-7-----
D|----------------------------------------------------------------------------------
A|----------------------------------------------------------------------------------
E|----------------------------------------------------------------------------------

Trouble's on the outside, I know...
e|-------------------------------------------------------------------------------
B|-------------------------------------------------------------------------------
G|--5-5-5-5--5-5-5-5--5-5-5-5--7-7-7------5-5-5-5--5-5-5-5--5-5-5-5--7-7-7-7-----
D|-------------------------------------------------------------------------------
A|-------------------------------------------------------------------------------
E|-------------------------------------------------------------------------------


tabs and chords, guitar tabs, music transcription, music technology, deep learning, music information retrieval, transcribe into tabs & chords, chordify, music renditions, songsterr, reverbnation, tabulature, bollywood chords, ultimate guitar, yousician, guitar lessons, acoustic guitar, electric guitar, guitar tuner, 911 tabs