Guitar Tabs for All Gone (reunion) - The Last Of Us

(/) Slide Up  (\) Slide Down  (h) Hammer On  (p) Pull Off  (b) Bend (r) Release (v) Vibrato (x) Muted

All Gone (Reunion) - The Last of Us Vol. 2 

Tab for tapping/pulloff intro is generally accurate but not precisely, and I never play it the 
same way twice.  You do have to feel it out.  One subtle thing to make sure to include is briefly
hammering on 6 of the B tring during the second repetition of the phrase, which gives it that 
dissonant vibe.  Also, I marked vibrato where I thought it most important, however I usually 
end up doing it a lot throughout.

E|---------------------------------------------------------------------------------------------
B|-5---8-p5-h8-p5-h8-p5-h8-p5-h8-p5-h8-p5-h8-p5-h8-p5-h7-p5-h8-p5-h7-p5-h7-p5-h7-p5-h7-p5-h7-p5
G|---------------------------------------------------------------------------------------------
D|---------------------------------------------------------------------------------------------
A|---------------------------------------------------------------------------------------------
E|---------------------------------------------------------------------------------------------


E|---------------------------------------------------------------------------------------------
B|--h5-p0-h5-p0-h8-p5-h8-p5-h8-p5-h8-p5-h8-p5-h8-p5-h7-p5-h8-p5-h7-p5-h7-p5-h6-p5-h7-p5-h7-p5--
G|---------------------------------------------------------------------------------------------
D|---------------------------------------------------------------------------------------------
A|---------------------------------------------------------------------------------------------
E|---------------------------------------------------------------------------------------------



                             Slower now
E|---------------------------------------------------------------------------------------------
B|--h6-p5-h7-p5-h7-p5-h7-p5--8p5-5---s3-1h3p1-0------------3s5--8---7h8p7---5v--8---7v---5v----
G|----------------------------------------------0----------------------------------------------
D|------------------------------------------------2v----------------0--------------------------
A|-------------------------------3------------------------------7---5-----------7---6v---------
E|--------------------------------------------0---------------------------------8---7v---------

 
        (bar5)(bar2)       
E|---------------------------------------------------------------------------------------------
B|--8---7--5--4--5--7--8v---12v----------------------------------------------------------------
G|--5---5--------------------------------------------------------------------------------------
D|--7---7-----4--4-----------------------------------------------------------------------------
A|--0---5-----2--2--6--------------------------------------------------------------------------
E|------------------7-------0------------------------------------------------------------------

tabs and chords, guitar tabs, music transcription, music technology, deep learning, music information retrieval, transcribe into tabs & chords, chordify, music renditions, songsterr, reverbnation, tabulature, bollywood chords, ultimate guitar, yousician, guitar lessons, acoustic guitar, electric guitar, guitar tuner, 911 tabs