Guitar Tabs for All Flowers In Time Bend Towards The Sun

This is the live version of the song from Selinas Entertainment Centre in Sydney, 1st of March 1996.
You can hear Jeff tuning his guitar to this tuning before the song (CGCEGC), the frequency is higher than concert pitch so 
you'll need to tune up a little bit til you find it, or if you have a tuner set the hz to about A = 444.

Most of this song is played in a strumming style which you'll have to figure out,
mix it up and play around. See all chords variations below the tab.

(/) Slide Up  (\) Slide Down  (h) Hammer On  (p) Pull Off  (b) Bend (r) Release (v) Vibrato (x) Muted


INTRO 

      Let ring....         Strumming..              Cmaj7no3 
C|--0-----------------------6-----------7-----------0--------0--
G|--0-----------------------2-----------5-------/7--4--------2--
E|--0-----------------------2-----------5-------/7--3--------2--
C|--------------------------2-----------4-----------0--------0--
G|--0-----------------------2-----------2-----------0--------0--
C|-----------------------0--2-----------x-----------0--------0--
 
C|--0-----------------------7-----------0--------0-----2--2--------0-----0--
G|--0--------------------0--5-------/7--4--------2-----0--2--------4-----2--
E|--0-----------------2-----5-------/7--3--------2-----0--2--------3-----2--
C|--0--------------2--------4-----------0--------0-----0--2--------0-----0--
G|--0-----------------------2-----------0--------0--0-----2-----0--------0--
C|--0-----------2-----------x-----------0--------0--0--2--2-----0--------0--

or play

C|--0-----------------------0-----------0-----------0--------0--
G|--0-----------------------2-----------0--------0--0--------0--
E|--0-----------------------2-----------8-------/10-7--------5--
C|--------------------------2-----------9-------/12-7--------6--
G|--0-----------------------2--------0--x--------x--5--------7--
C|-----------------------0--2-----------9-------/12-0--------0--

C|--0-----------------------0-----------0--------0-----2--2--------0-----0--
G|--0--------------------0--0--------0--4--------2-----0--0--------4-----2--
E|--0-----------------2-----8-------/10-3--------2-----0--2--------3-----2--
C|--0--------------2--------9-------/12-0--------0-----0--0--------0-----0--
G|--0-----------------------x--------x--0--------0--------0-----0--------0--
C|--0-----------2-----------9-------/12-0-----------0--2--2-----0--------0--

BRIDGE A

More strumming chords     (repeat this part twice)
C|--------------x-----2-----0-----------0--------0--0--------0--
G|--------------0-----2-----4-------/7--4--------2--4--------2--
E|--------------0-----2-----3-------/7--3--------2--3--------2--
C|-----------4--------------0-----------0--------0--0--------0--
G|--------------------5--0--------------0--------0--0--------0--
C|--------4-----------6-----------------0--------0--0--------0--

C|--------------x-----2-----0-----------0--------0--0--------0--
G|--------------0-----2-----4-------/7--4--------2--4--------2--
E|--------------0-----2-----3-------/7--3--------2--3--------2--
C|-----------4--------------0-----------0--------0--0--------0--
G|--------------------5--0--------------0--------0--0--------0--
C|--------4-----------6-----------------0--------0--0--------0--


VERSE I
  
  "My eyes are..baptism,    Oh, I am fuse..        and sing her into my thoughts, oh phantom elusive thing"  
C|--0-----------0-----------2-----------0-----------0-----------0-----------2-----------0-----------
G|--4-----------2-----------0-----------0-----------4-----------2-----------0-----------0-----------
E|--3-----------2-----------0-----------0-----------3-----------2-----------0-----------0-----------
C|--4-----------2-----------0-----------0-----------4-----------2-----------0-----------0-----------
G|--0-----------0-----------0-----------0-----------0-----------0-----------0-----------0-----------
C|--4-----------2-----------0-----------0-----------4-----------2-----------0-----------0-----------

or play

C|--0-----------0-----------0-----------0-----------0-----------0-----------0-----------0-----------
G|--0-----------0-----------7-----------5-----------0-----------0-----------7-----------5-----------
E|--7-----------5-----------0-----------0-----------7-----------5-----------0-----------0-----------
C|--0-----------6-----------7-----------7-----------0-----------6-----------7-----------7-----------
G|--9-----------7-----------5-----------5-----------9-----------7-----------5-----------5-----------
C|--x-----------x-----------0-----------0-----------x-----------x-----------0-----------0-----------


CHORUS  (Same as Intro - can be played alternatively)

   "All flowers in time..    I know you say.." 
C|--2-----------7-----------0--------0--0--------0--
G|--2-----------5-------/7--4--------2--4--------2--
E|--2-----------5-------/7--3--------2--3--------2--
C|--2-----------4-----------0--------0--0--------0--
G|--2-----------2-----------0--------0--0--------0--
C|--2-----------x-----------0--------0--0--------0--
    "All flowers in time..   I know you say..     but here is one.."
C|--2-----------7-----------0--------0--0--------0--0--------0--
G|--2-----------5-------/7--4--------2--4--------2--4--------2--
E|--2-----------5-------/7--3--------2--3--------2--3--------2--
C|--2-----------4-----------0--------0--0--------0--0--------0--
G|--2-----------2-----------0--------0--0--------0--0--------0--
C|--2-----------x-----------0--------0--0--------0--0--------0--

BRIDGE A

 "But here is onnnnnnnnneeeeee..." 
C|--------------x--------x--x-----------0--------0--0--------0--
G|--------------0--------0--0--------7--4--------2--4--------2--
E|--------------3--------5--7--------7--3--------2--3--------2--
C|-----------4-----------6--7--------7--0--------0--0--------0--
G|-----------------------x--x-----------0--------0--0--------0--
C|--------4--------------6--7--------7--0--------0--0--------0--

 (and again with a nice variation to the end - if you want)
C|--------------x--------x--x-----------0--------0--0--------0--
G|--------------0--------0--0--------7--0--------0--0--------0--
E|--------------3--------5--7--------7--7--------5--7--------5--
C|-----------4-----------6--7--------7--7--------6--7--------6--
G|-----------------------x--x-----------5--------7--5--------7--
C|--------4--------------6--7--------7--0--------0--0--------0--

  VERSE II:
  
  "Ohhh..        One that can never be mine.. either .all drunk...        or sober with no place to go"
C|--0-----------0-----------2-----------0-----------0-----------0-----------2-----------0-----------
G|--4-----------2-----------0-----------0-----------4-----------2-----------0-----------0-----------
E|--3-----------2-----------0-----------0-----------3-----------2-----------0-----------0-----------
C|--4-----------2-----------0-----------0-----------4-----------2-----------0-----------0-----------
G|--0-----------0-----------0-----------0-----------0-----------0-----------0-----------0-----------
C|--4-----------2-----------0-----------0-----------4-----------2-----------0-----------0-----------

or play 

C|--0-----------0-----------0-----------0-----------0-----------0-----------0-----------0-----------
G|--0-----------0-----------7-----------5-----------0-----------0-----------7-----------5-----------
E|--7-----------5-----------0-----------0-----------7-----------5-----------0-----------0-----------
C|--0-----------0-----------7-----------7-----------0-----------0-----------7-----------7-----------
G|--9-----------7-----------5-----------5-----------9-----------7-----------5-----------5-----------
C|--x-----------x-----------0-----------0-----------x-----------x-----------0-----------0-----------


CHORUS AGAIN (Same as Intro, can be played alternatively)

   "All flowers in time..    I know you say.." 
C|--2-----------7-----------0--------0--0--------0--
G|--2-----------5-------/7--4--------2--4--------2--
E|--2-----------5-------/7--3--------2--3--------2--
C|--2-----------4-----------0--------0--0--------0--
G|--2-----------2-----------0--------0--0--------0--
C|--2-----------x-----------0--------0--0--------0--

    "All flowers in time..   I know you say..     but here is one.."
C|--2-----------7-----------0--------0--0--------0--0--------0--
G|--2-----------5-------/7--4--------2--4--------2--4--------2--
E|--2-----------5-------/7--3--------2--3--------2--3--------2--
C|--2-----------4-----------0--------0--0--------0--0--------0--
G|--2-----------2-----------0--------0--0--------0--0--------0--
C|--2-----------x-----------0--------0--0--------0--0--------0--

BRIDGE A

  "But here is onnnnnnnnneeeeee..." 
C|--------------x--------x--x-----------0--------0--0--------0--
G|--------------0--------0--0--------7--4--------2--4--------2--
E|--------------3--------5--7--------7--3--------2--3--------2--
C|-----------4-----------6--7--------7--0--------0--0--------0--
G|-----------------------x--x-----------0--------0--0--------0--
C|--------4--------------6--7--------7--0--------0--0--------0--

BRIDGE B

C|--------------0-----------2-----------0-----------
G|--0-----------2-----------0-----------0-----------
E|--3-----------2-----------2-----------0-----------
C|--4-----------2-----------0-----------0-----------
G|--0-----------0-----------0-----------0-----------
C|--4-----------2-----------0-----------0-----------


BRIDGE B & VERSE III

    "Keep it going in me"  "fading farther from me with your face in my.."
C|--0-----------2-----------0-----------2-----------
G|--0-----------0-----------2-----------0-----------
E|--0-----------2-----------0-----------2-----------
C|--0-----------0-----------0-----------0-----------
G|--0-----------0-----------0-----------0-----------
C|--0-----------0-----------0-----------0-----------

  "window glow"             "where...   wait for... sweet willow" 
C|--------0-----------------0-----------0-----------0-----------
G|--------0-----------------0-----------4-----------2-----------
E|--3--7--0-----------3--7--0-----------3-----------2-----------
C|--4--7--0-----------4--7--0-----------0-----------0-----------
G|--------0-----------------0-----------------------------------
C|--4--7--0-----------4--7--0-----------------------------------
  
  ohhhhhhh...  (This part plays 3 timees - here are 3 variations you can play with)
C|--6-----------0-----------0-----------0-----------
G|--0-----------7-----------7-----------5-----------
E|--0-----------7-----------0-----------0-----------
C|--7-----------6-----------7-----------7-----------
G|--9-----------7-----------5-----------5-----------
C|--------------------------------------------------
 
 
  It's okay to be but not to hurt me...
C|--6-----------2-----------0-----------0-----------
G|--0-----------2-----------7-----------5-----------
E|--3-----------2-----------0-----------0-----------
C|--4-----------2-----------7-----------7-----------
G|--0-----------2-----------5-----------5-----------
C|--4-----------2-----------------------------------


  Your happiness yes, yes, yes darling, darling... 
C|--6-----------2-----------2-----------0-----------
G|--0-----------2-----------0-----------0-----------
E|--3-----------2-----------0-----------0-----------
C|--4-----------2-----------0-----------0-----------
G|--0-----------2-----------0-----------0-----------
C|--4-----------2-----------0-----------0-----------

RETURN TO BRIDGE & THEN BACK TO CHORUS

THEN PLAY

ENDING

C|--6-----------2-----------2--------0--0--------0--0--------0--0--------0--0--0--0--0--0-----------
G|--0-----------2-----------0--------2--4--------2--4--------2--4--------2--4--5--7--9--7-----------
E|--3-----------2-----------0--------2--3--------2--3--------2--3--------2--3--5--7--8--7-----------
C|--4-----------2-----------0--------0--0--------0--0--------0--0--------0--0--0--0--0--0-----------
G|--0-----------2-----------0--------0--0--------0--0--------0--0--------0--0--0--0--0--0-----------
C|--4-----------2-----------0--------0--0--------0--0--------0--0--------0--0--0--0--0--0-----------






CHORD VARIANTS

Cmaj7no3    C major 7th (no 3rd)
C|--0-----------0--
G|--0-----------4--
E|--7-----------3--
C|--7-----------0--
G|--5-----------0--
C|--------------0--


C|--0-----------0-----------0--
G|--7-----------2-----------0--
E|--5-----------2-----------5--
C|--0-----------0-----------6--
G|--5-----------0-----------7--
C|--0-----------0--------------

C|--7-----------0--
G|--5-----------0--
E|--5-----------8--
C|--4-----------9--
G|--1-----------x--
C|--x-----------9--

C|-----------------
G|--7--------------
E|--7-----------10-
C|--------------12-
G|--------------x--
C|--------------12-



My eyes are
A baptism
Oh, I am fuse
And sing her
Into my thoughts


Oh, phantom elusive thing

Oh, all flowers in time bend towards the sun
I know you say that there's no-one for you
But here is one
All flowers in time bend towards the sun
I know you say that there's no-one for you
But here is one, but here is one...
Here is one

Aaah

Oh, one that can never be mine
either, all drunk with the world at her feet 
or sober with no place to go

Oh, all flowers in time bend towards the sun
I know you say that there's no-one for you
But here is one
All flowers in time bend towards the sun
I know you say that there's no-one for you
But here is one, but here is one...

Keep it going in me, wicked traveller
Fading farther from me
With your face in my window glow
Where will you wait for me?
Sweet willow

It's ok to be angry
But not to hurt me
Your happiness
Yes, yes, yes
Darling, darling, darling
Oooh...

All flowers in time bend towards the sun
I know you say that there's no one for you
But here is one
All flowers in time bend towards the sun
I know you say that there's no one for you
But here is one
All flowers in time bend towards the sun
I know you say that there's no one for you
But here is one
All flowers in time bend towards the sun
I know you say that there's no one for you
But here is one
But here is one
But here is one...
tabs and chords, guitar tabs, music contests, music covers, songsterr, reverbnation, renditions, tabulature, bollywood chords, ultimate guitar, yousician, guitar lessons, torrins, fender, gibson, acoustic guitar, electric guitar, youtube covers, gootar, guitar tuner, A-Z tabs, 911 tabs