Bass Tabs for All Apologies

(/) Slide Up  (\) Slide Down  (h) Hammer On  (p) Pull Off  (b) Bend (r) Release (v) Vibrato (x) Muted

Tabs for Song : 

Song lyrics here
F|--------7--7--------7-----------------7--7-----------
C|--0--0--------0--0--------------0--0--------0--0--7--
G|-----------------------------------------------------
C|-----------------------------------------------------

F|-----------------------------------------------
C|-----------------------------------------------
G|-----------------------------------------------
C|--5--5--5--5--3--0--3--4--5--0--5--3--0--3--4--


F|-----
C|-----
G|-----
C|--7--

F|-----------------------------
C|-----4-----------------------
G|--5-----------5--7--7--------
C|--------------------------7--

F|-----------------
C|-----------------
G|-----------------
C|--0--0--0--0--0--

F|-----------------------
C|-----------------------
G|--3--------3--5--3--5--
C|-----0-----------------


Song lyrics here


Paste any tab in acousterr's tab maker and we'll play it !!!
Now supports capo and sound effects for vibrato/pull-off/hammer/bends/mutes etc !!! Checkout help section
tabs and chords, guitar tabs, music transcription, music technology, deep learning, music information retrieval, transcribe into tabs & chords, chordify, music renditions, songsterr, reverbnation, tabulature, bollywood chords, ultimate guitar, yousician, guitar lessons, acoustic guitar, electric guitar, guitar tuner, 911 tabs