Alice Deejay - Better Off Alone (best Ukulele) - Ukulele Tabs

(/) Slide Up  (\) Slide Down  (h) Hammer On  (p) Pull Off  (b) Bend (r) Release (v) Vibrato (x) Muted

Tabs for Song : 
BPM : 200

Song lyrics here 


A|-------------------------------------------------------------------------------------------------------------------------------------------------------------------
E|--7-----------------------------------------7--------------------------------------7-----------------------------------------7--------------------------------------
C|--------------------------------------------------------------------------------------------------------------------------------------------------------------------
G|-----------------------------------------3--------------------------------------------------------------------------------3-----------------------------------------

A|--------------------------------------------------------------------------------------------------------------------------
E|--7--------7--4-----------------------------7--------7--4-----------------------------7--------7--4-----------------------
C|--------------------------------------------------------------------------------------------------------------------------
G|-----------------------------------11-11-8-----------------------------------9--9--8--------------------------------------

A|--------------------------------------------------------
E|-----------7--------7--4--------------------------------
C|--------------------------------------------------------
G|--11-11-8--------------------------------------9--9--8--

Song lyrics here 
A|--------------------------------------------------------
E|--7-----7--4-----7-----7--------------------------------
C|-----------------------------------6--------------------
G|-----------------------------3--------11-------11----8--

A|--------------------------------------------------------
E|--7-----7--4-----7-----7--------------------------------
C|-----------------------------------6--------------------
G|-----------------------------3--------9--------9-----8--

A|--------------------------------------------------------
E|--7-----7--4-----7-----7--------------------------------
C|-----------------------------------6--------------------
G|-----------------------------3--------11-------11----8--

A|--------------------------------------------------------
E|--7-----7--4-----7-----7--------------------------------
C|-----------------------------------6--------------------
G|-----------------------------3--------9--------9-----8--

Use manual mode to free up cursor. Paste any tab in acousterr tab maker and we'll play it !!!

















About Better Off Alone : In 1998, the song was released as an instrumental by DJ Jurgen . Later releases of the track included vocals by Judith Pronk, who would later become a seminal part of the Alice Deejay project . The song was later included on Alice Deejay's debut album Who Needs Guitars Anyway? (2000) The song is known for playing a key role in the development of the commercial techno sound . The song was composed by J├╝rgen "DJ Jurgen" Rijkers, Sebastiaan "Pronti" Moljin and Eelke "Kalmani" Kahlberg at Violent Studios 4045 complex in Hilversum, Netherlands . Violent Music and Violent Studios It was released in 1998. It was released as part of album Who Needs Guitars Anyway?. The genre is eurodance techno. The track was release in 1998. Better Off Alone has a significant contribution from artist(s) Alice Deejay,DJ Jurgen,Eelke Kalberg,Judith Pronk.

tabs and chords, guitar tabs, music transcription, music technology, deep learning, music information retrieval, transcribe into tabs & chords, chordify, music renditions, songsterr, reverbnation, tabulature, bollywood chords, ultimate guitar, yousician, guitar lessons, acoustic guitar, electric guitar, guitar tuner, 911 tabs