Guitar Tabs for Alan Walker- All Falls Down

(/) Slide Up  (\) Slide Down  (h) Hammer On  (p) Pull Off  (b) Bend (r) Release (v) Vibrato

Tabs for Song : All Falls Down chords by Alan Walker
 
What's the trick? I wish I knew
I'm so done with thinking through 
E|--1-----------1--------------------------1-------
B|-----2-----------2--1--1--1--1--2--2--4-------2--
G|--------3--3-------------------------------------
D|-------------------------------------------------
A|-------------------------------------------------
E|-------------------------------------------------

All the things I could've been
And I know you wonder too
E|--1-----------1--------------------------1-------
B|-----2-----------2--1--1--1--1--2--2--4-------2--
G|--------3--3-------------------------------------
D|-------------------------------------------------
A|-------------------------------------------------
E|-------------------------------------------------

All it takes is that one look you do and I run right back to you
E|-----1--2--2--2--------------4--1--1------1-------
B|--4--------------2--1--1--1-------------4---------
G|--------------------------------------------3-----
D|--------------------------------------------------
A|--------------------------------------------------
E|--------------------------------------------------

You cross the line and it's time to say F you
E|---1----------1-----------------------
B|------2-----------2-1--1--1--2--------
G|---------3-3--------------------------
D|--------------------------------------
A|--------------------------------------
E|--------------------------------------

What's the point in saying that 
When you know how I'll react?
E|--1-----------1-----------------------1-----
B|-----2-----------2--1--1--1--2--2--4-----2--
G|--------3--3--------------------------------
D|--------------------------------------------
A|--------------------------------------------
E|--------------------------------------------

You think you can just take it back, but shit just don't work like that
E|-----1-----------1-----------------------1-----
B|--2-----2-----------2--1--1--1--2--2--4-----2--
G|-----------3--3--------------------------------
D|-----------------------------------------------
A|-----------------------------------------------
E|-----------------------------------------------

You're the drug that I'm addicted to, and I want you so bad
E|-----1--2--2--2-------------4-1-1-----1-----
B|--4---------------2--1--1-----------4-------
G|-----------------------------------------3--
D|--------------------------------------------
A|--------------------------------------------
E|--------------------------------------------

Guess I'm stuck with you, and that's that
E|--1----------1------------------
B|-----2----------2--1--1--1--2---
G|--------3-----------------------
D|--------------------------------
A|--------------------------------
E|--------------------------------

Cause when it all falls down, then whatever
E|-----1--4---4/6--4-----------1--4-----
B|--2-----------------4--4--2-----------
G|--------------------------------------
D|--------------------------------------
A|--------------------------------------
E|--------------------------------------

When it don't work out for the better
E|-----1--4--6--4-----------1--4--------
B|--2--------------4--4--2--------------
G|--------------------------------------
D|--------------------------------------
A|--------------------------------------
E|--------------------------------------

If it just ain't right, and it's time to say goodbye
E|-----1--4--6--4-----------1--4-----4-----
B|--2--------------4--4--2--------1--------
G|--------------------------------------3--
D|-----------------------------------------
A|-----------------------------------------
E|-----------------------------------------

When it all falls down, when it all falls down
I'll be fine
E|-----------------6--4--4--9--11-13-------
B|-----------2--4--------------------14-11-
G|--3--1--1--------------------------------
D|-----------------------------------------
A|-----------------------------------------
E|-----------------------------------------









Add more lines by placing cursor below and adding notes
tabs and chords, guitar tabs, music transcription, music technology, deep learning, music information retrieval, transcribe into tabs & chords, chordify, music renditions, songsterr, reverbnation, tabulature, bollywood chords, ultimate guitar, yousician, guitar lessons, acoustic guitar, electric guitar, guitar tuner, 911 tabs