Guitar Tabs for Aku Sanggup

(/) Slide Up  (\) Slide Down  (h) Hammer On  (p) Pull Off  (b) Bend (r) Release (v) Vibrato (x) Muted

Tabs for Song : 

Intro
E|-----------------------------------------------------------
B|-----------------11-------------11-10-----8h10----8--10-8--
G|--7--8-----7--8-----7--5--7--------------------------------
D|-----------------------------------------------------------
A|-----------------------------------------------------------
E|-----------------------------------------------------------

Solo
E|-----------------15-15-11-11-------------------------------------------------------------------------
B|---8\10-8--8-----------------13-13----8--8-----------------------------------------------------------
G|--------------------------------------------8--8-----5--5--------------------------------------------
D|-----------------------------------------------------------5--5--------------------------------------
A|--------------------------------------------------------------------6--6-----------------------------
E|--------------------------------------------------------------------------6--6---5/3------3\6--6--5--

E|--------------------------------------------------------------
B|-----10-11-10----------------------------11----------11-10----
G|--12----------12-10-10\12----7--8--7--8-----7--5--7-----------
D|--------------------------------------------------------------
A|--------------------------------------------------------------
E|--------------------------------------------------------------

E|--------------13-------------------------------------------------------
B|--11-13b13-------13----11----11----------------------------------------
G|--------------------------12----12----10----10-------------------------
D|-----------------------------------------12----12----10-10-8--7--7--5--
A|-----------------------------------------------------------------------
E|-----------------------------------------------------------------------

Paste any tab in acousterr's tab maker and we'll play it !!!
Now supports capo and sound effects for vibrato/pull-off/hammer/bends/mutes etc !!! Checkout help section
tabs and chords, guitar tabs, music transcription, music technology, deep learning, music information retrieval, transcribe into tabs & chords, chordify, music renditions, songsterr, reverbnation, tabulature, bollywood chords, ultimate guitar, yousician, guitar lessons, acoustic guitar, electric guitar, guitar tuner, 911 tabs