Ajc - Bernard Gervais Burnz - Guitar Tabs

The Guitarist
    
                                                                                                                                                                                                                                                                                                                                                                                                                                                                                                                                                                                                                                                                                                                                                                                                                                                                                                                                                                                                                                                                                                                                                                                              
E|-------------------------|7--0--0--8--0--0--10-0--0--7--7--0--0----------|
B|-------------------------|---------------------------------------7--0--0-|
G|-------------------------|-----------------------------------------------|
D|--2--2--2--2--2--2--2--2-|-----------------------------------------------|
A|--0--0--0--0--0--0--0--0-|-----------------------------------------------|
E|-------------------------|-----------------------------------------------|

    
                                                                                                                                                                                                                                                                                                                                                                                                                                                                                                                                                                                                 
E|----------------------------------|
B|--8--0--0--10-0--0--13------------|
G|----------------------------------|
D|----------------------------------|
A|----------------------------------|
E|----------------------------------|

    
                                                                                                                                                                                                                                                                                                                                                                                                                                                                                                                                                                                                                                                                                                                                                                                                                                                                                                                                                                                                                                                                                                                                                                                              
E|--7--0--0--8--0--0--10-0--0--7--7--0--0----------|--------------------------------|
B|-----------------------------------------7--0--0-|8--0--0--10-0--0--13------------|
G|-------------------------------------------------|--------------------------------|
D|-------------------------------------------------|--------------------------------|
A|-------------------------------------------------|--------------------------------|
E|-------------------------------------------------|--------------------------------|

    
                                                                                                                                                                                                                                                                                                                                                                                                                                                                                                                                                                                                                                                                                                                                                                                                                                                                                                                                                                                                                                                                                                                                                                                              
E|--7--0--8--0--10-8--7-------------------------|10-0--0--9--0--0--7-------------------------|
B|-----------------------10-8--7--5--7--7--7--7-|---------------------15-12-13-13-13-12-15---|
G|----------------------------------------------|--------------------------------------------|
D|----------------------------------------------|--------------------------------------------|
A|----------------------------------------------|--------------------------------------------|
E|----------------------------------------------|--------------------------------------------|

    
                                                                                                                                                                                                                                                                                                                                                                                                                                                                                                                                                                                                 
E|--7--0--0--8--0--0--10-0--0--7--7--0--0----------|
B|--7--0--0--8--0--0--10-0--0--7--7--0--0--7--0--0-|
G|-------------------------------------------------|
D|-------------------------------------------------|
A|-------------------------------------------------|
E|-------------------------------------------------|

    
                                                                                                                                                                                                                                                                                                                                                                                                                                                                                                                                                                                                 
E|----------------------------------|
B|--8--0--0--10-0--0--13------------|
G|----------------------------------|
D|----------------------------------|
A|----------------------------------|
E|----------------------------------|

    
                                                                                                                                                                                                                                                                                                                                                                                                                                                                                                                                                                                                                                                                                                                                                                                                                                                                                                                                                                                                                                                                                                                                                                                              
E|--7--7--7--8--8--8--10-10-10-10-8-|7-----------7--7--7-------|
B|----------------------------------|--------------------------|
G|----------------------------------|--------------------------|
D|----------------------------------|--------------------------|
A|----------------------------------|--------------------------|
E|----------------------------------|--------------------------|

    
                                                                                                                                                                                                                                                                                                                                                                                                                                                                                                                                                                                                                                                                                                                                                                                                                                                                                                                                                                                                                                                                                                                                                                                              
E|--7--0--0--8--0--0--10-0--0--7--7--0--0----------|--------------------------------|
B|-----------------------------------------7--0--0-|8--0--0--10-0--0--13------------|
G|-------------------------------------------------|--------------------------------|
D|-------------------------------------------------|--------------------------------|
A|-------------------------------------------------|--------------------------------|
E|-------------------------------------------------|--------------------------------|

    
                                                                                                                                                                                                                                                                                                                                                                                                                                                                                                                                                                                                                                                                                                                                                                                                                                                                                                                                                                                                                                                                                                                                                                                              
E|--7--0--8--0--10-8--7-------------------------|10-0--0--9--0--0--7-------------------------|
B|-----------------------10-8--7--5--7--7--7--7-|---------------------15-12-13-13-13-12-15---|
G|----------------------------------------------|--------------------------------------------|
D|----------------------------------------------|--------------------------------------------|
A|----------------------------------------------|--------------------------------------------|
E|----------------------------------------------|--------------------------------------------|

    
                                                                                                                                                                                                                                                                                                                                                                                                                                                                                                                                                                                                                                                                                                                                                                                                                                                                                                                                                                                                                                                                                                                                                                                              
E|--10-8--7--8--10-10----10-8--6--5--5--5----|5--5--5--7--7--7--10-10-10-13-13-13|
B|-------------------------------------------|-----------------------------------|
G|-------------------------------------------|-----------------------------------|
D|-------------------------------------------|-----------------------------------|
A|-------------------------------------------|-----------------------------------|
E|-------------------------------------------|-----------------------------------|

    
                                                                                                                                                                                                                                                                                                                                                                                                                                                                                                                                                                                                 
E|--15---------------------|
B|-------------------------|
G|-------------------------|
D|-------------------------|
A|-------------------------|
E|-------------------------|

    
                                                                                                                                                                                                                                                                                                                                                                                                                                                                                                                                                                                                 
E|-------------------------------------------|
B|-------------------------------------------|
G|-------------------------------------------|
D|-------------------------------------------|
A|-------------------------------------------|
E|--7--7--7--0--0--8--8--8--0--0--10-8--7----|

    
                                                                                                                                                                                                                                                                                                                                                                                                                                                                                                                                                                                                 
E|----------------------------------|
B|----------------------------------|
G|-----------------9--7-------------|
D|--------------9--9--7--9--------9-|
A|--------------9--7--5--9--------9-|
E|--0--0--0--0--7--------7--7--7--7-|

    
                                                                                                                                                                                                                                                                                                                                                                                                                                                                                                                                                                                                                                                                                                                                                                                                                                                                                                                                                                                                                                                                                                                                                                                              
E|-------------------------------|--------------------------------|
B|-------------------------------|--------------------------------|
G|--------------9--7--5--4-------|--------------------------------|
D|--------------9--7--5--4--2----|------4--------------5--5--2--2-|
A|--------------7--5--3--2--2----|------4--------------5--5--2--2-|
E|--0--0--0--0--------------0----|0--0--2--0--0--0--0--3--3--0--0-|

    
                                                                                                                                                                                                                                                                                                                                                                                                                                                                                                                                                                                                 
E|----------------------------------|
B|----------------------------------|
G|-----------------9--7-------------|
D|--------------9--9--7--9--------9-|
A|--------------9--7--5--9--------9-|
E|--0--0--0--0--7--------7--7--7--7-|

    
                                                                                                                                                                                                                                                                                                                                                                                                                                                                                                                                                                                                 
E|----------------------------------|
B|----------------------------------|
G|----------------------------------|
D|--------7--------8--------10-8--7-|
A|--------7--------8--------10-8--7-|
E|--0--0--5--0--0--6--0--0--8--6--5-|

    
                                                                                                                                                                                                                                                                                                                                                                                                                                                                                                                                                                                                 
E|--7--0--0--8--0--0--10-0--0--7--7--0--0----------|
B|-----------------------------------------7--0--0-|
G|-------------------------------------------------|
D|-------------------------------------------------|
A|-------------------------------------------------|
E|-------------------------------------------------|

    
                                                                                                                                                                                                                                                                                                                                                                                                                                                                                                                                                                                                 
E|----------------------------------|
B|--8--0--0--10-0--0--13------------|
G|----------------------------------|
D|----------------------------------|
A|----------------------------------|
E|----------------------------------|

    
                                                                                                                                                                                                                                                                                                                                                                                                                                                                                                                                                                                                 
E|--7--0--8--0--10-8--7-------------------------|
B|-----------------------10-8--7--5--7--7--7--7-|
G|----------------------------------------------|
D|----------------------------------------------|
A|----------------------------------------------|
E|----------------------------------------------|

    
                                                                                                                                                                                                                                                                                                                                                                                                                                                                                                                                                                                                 
E|--10-0--0--9--0--0--7-------------------------|
B|-----------------------15-12-13-13-13-12-15---|
G|----------------------------------------------|
D|----------------------------------------------|
A|----------------------------------------------|
E|----------------------------------------------|

    
                                                                                                                                                                                                                                                                                                                                                                                                                                                                                                                                                                                                 
E|----------------------------------|
B|----------------------------------|
G|--------9--------7--------5--4----|
D|--------9--------7--------5--4----|
A|--------7--------5--------3--2----|
E|--0--0-----0--0-----0--0----------|

    
                                                                                                                                                                                                                                                                                                                                                                                                                                                                                                                                                                                                 
E|-------------------------|
B|-------------------------|
G|-------------------------|
D|--5--x--x--2-----5--5--x-|
A|--5--x--x--2-----5--5--x-|
E|--3--x--x--0-----3--3--x-|

    
                                                                                                                                                                                                                                                                                                                                                                                                                                                                                                                                                                                                                                                                                                                                                                                                                                                                                                                                                                                                                                                                                                                                                                                              
E|-------------------------|-----------------------|
B|-------------------------|-----------------------|
G|-------------------------|------8--7--6----------|
D|--9--9--7--7--5--5--7--7-|7-----8--7--6----------|
A|--9--9--7--7--5--5--7--7-|7-----6--5--4----------|
E|--7--7--5--5--3--3--5--5-|5----------------------|

    
                                                                                                                                                                                                                                                                                                                                                                                                                                                                                                                                                                                                                                                                                                                                                                                                                                                                                                                                                                                                                                                                                                                                                                                              
E|-----12----12-------17---|7--5--7--8--7--5--7--8--7--5--7--8-------------|
B|--14----14----14-14------|------------------------------------18-16-18-19|
G|-------------------------|-----------------------------------------------|
D|-------------------------|-----------------------------------------------|
A|-------------------------|-----------------------------------------------|
E|-------------------------|-----------------------------------------------|

    
                                                                                                                                                                                                                                                                                                                                                                                                                                                                                                                                                                                                                                                                                                                                                                                                                                                                                                                                                                                                                                                                                                                                                                                              
E|--------------18-16-17-18-9--------9--------9-|17-------17-------17-17-17-17-17-17|
B|--18-16-18-19----------------13-12----13-12---|---16-15----16-15------------------|
G|----------------------------------------------|-----------------------------------|
D|----------------------------------------------|-----------------------------------|
A|----------------------------------------------|-----------------------------------|
E|----------------------------------------------|-----------------------------------|
tabs and chords, guitar tabs, music transcription, music technology, deep learning, music information retrieval, transcribe into tabs & chords, chordify, music renditions, songsterr, reverbnation, tabulature, bollywood chords, ultimate guitar, yousician, guitar lessons, acoustic guitar, electric guitar, guitar tuner, 911 tabs